Radical (BAJ) (2)


División Minúscula - Radical 
 
intro  x2(nota:puedes aplicar una de las 2 vueltas como tu quieras) 
 
G|-------------------------------------------------------| 
D|-------------------------------------------------------| 
A|--------------3-3-3-3-3-3-------------5-5-5-5-5-5------| 
E|--3-3-3-3-3-3-------------0-0-0-0-0-0------------------| 
 
G|-------------------------------------------------------| 
D|--5-5-5-5-5-5------------------------------------------| 
A|--------------3-3-3-3-3-3-7-7-7-7-7-7-5-5-5-5-5-5------| 
E|-------------------------------------------------------| 
 
pre-verso 
G|-----------------------| 
D|-------7---7-9-11------| 
A|--5---5----------------| 
E|-----------------------| 
 
verso x2 
 
G|--------------------------------------------------------------------| 
D|--------------------------------------------------------------------| 
A|--------------------------------------------------------------------| 
E|--3-3-3-3-3-3--3-3-3--3-3-3--0--0--0-0--0--0--0-0-0-0-0-0-----------| 
 
G|--------------------------------------------------------------------| 
D|--------------------------------------------------------------------| 
A|--3-3-3-3-3-3-3-3-3-3-3-3--7-7-7-7-7-7-7-7-7-7-7-7------------------| 
E|--------------------------------------------------------------------| 
 
pre-verso 
 
verso x2 
 
coro x2 
 
G|---------------------------------------------------------------------------| 
D|---------------------------------------------------------------------------| 
A|-3-3-3-3-3------------------------------------3-3-3-3-3-----------5-5-5-5-5| 
E|------------3-3-3-3-3---0-0-0-0-0--3-3-3-3-3------------3-3-3-3-3----------| 
 
 
G|-------------------------------------------| 
D|en la segunda al terminar es---------------| 
A|-------------------------------------------| 
E|-----------------------------8-8-8-8-8-8---| 
 
intro x2 
 
pre-verso 
 
verso x2 
 
coro x2 
 
solo de bajo 
 
G|-5-5-5-5-5-5------------7-7-7-7-7-5-4-5-4---| 
D|-------------5-5-5-5-5----------------------| 
A|--------------------------------------------| 
E|--------------------------------------------| 
                          /(este cambio es muy rapido) 
G|-5-5-5-5-5-5------------7-7-7-7-7-5-4-5-4---| 
D|-------------5-5-5-5-5h7--------------------| 
A|--------------------------------------------| 
E|--------------------------------------------| 
 
G|-5-5-5-5-5-5------------7-7-7-7-7-5-5-5-5-5-| 
D|-------------5-5-5-5-5----------------------| 
A|--------------------------------------------| 
E|--------------------------------------------| 
 
G|-5-5-5-5-5-5------------7-7-7-7-7-7-7-7-7---| 
D|-------------5-5-5-5-5h7--------------------| 
A|--------------------------------------------| 
E|--------------------------------------------| 
 
sabe bien...(desde aqui se repite como 9 veses asi) 
G|-5-5-5-5-5-5------------7-7-7-7-7-5-4-5-4---| 
D|-------------5-5-5-5-5h7--------------------| 
A|--------------------------------------------| 
E|--------------------------------------------| 
 
G|-5-5-5-5-5-5------------7-7-7-7-7-5-5-5-5-5-| 
D|-------------5-5-5-5-5----------------------| 
A|--------------------------------------------| 
E|--------------------------------------------| 
(y la ultima es asi) 
G|-5-5-5-5-5-5--------------------------------| 
D|-------------5-5-5-5-5-5--------------------| 
A|-------------------------5-5-5-5-5-5-5-5-5-5| 
E|--------------------------------------------| 
(con esto empiesa lo prendido) 
G|--------------------------------------------| 
D|--------------------------------------------| 
A|-3-3-3-3-3-----------5-5-5-5-5-3-3-3-3-3----| 
E|-----------3-3-3-3-3------------------------| 
 
G|---------------------------------------------| 
D|---------------------------------------------| 
A|-3-3-3-3-3-----------5--5--5-5---3--3-3-3--3-| 
E|-----------3-3-3-3-3-------------------------| 
 
G|--------------------------------------------| 
D|--------------------------------------------| 
A|-3-3-3-3-3-----------5-5-5-5-5-3-3-3-3-3----| 
E|-----------3-3-3-3-3------------------------| 
 
G|---------------------------------------------------| 
D|---------------------------------------------------| 
A|-3-3-3-3-3-----------5-5-5-5-5-5-5-----------------| 
E|-----------3-3-3-3-3---------------8-8-8-8-8-8-8---| 
 
coro x2 
 
y acaba en  
E|--3--| 
 
espero que les aya gustado 
este grupo en especial toca muy chido el punk 
y espero asiosamente su nuevo disco 
 
si tiene algun error escribanme a rainfreak1038 
 
apoyen el punk mexicano y en especial al punk regio 
y metanse a la pagina de mi grupo www.efusionpunk.tk 
 
gracias

 D
        D        
ivisión Minúscula

Este fichero es trabajo propio de su transcriptor y representa su interpretación personal de la canción. El material contenido en esta página es para exclusivo uso privado, por lo que se prohibe su reproducción o retransmisión, así como su uso para fines comerciales.



Buscar canción en YouTube Buscar cover en YouTube


Más canciones