Préstame tu piel (TAB) (3)


Aki esta los del tecladito en guitarra
igual va medio tono abajo la afinacion,
si no les gusta asi, en afinacion normal
solo pisen  lo que aki seria 5 en normal
seria 4 y asi 8 es 7 ok

INTRO
D#||----------------------------------------------------------
A#||-------8---------5-----------------------8-----------5----
F#||--5---------5-----------5----7------5-----------5---------
C#||----------------------------------------------------------
G#||----------------------------------------------------------
D#||----------------------------------------------------------

-----------------------------------------
-------8---------5-----------------------
--5---------5------------5----7------5---
-----------------------------------------
-----------------------------------------
-----------------------------------------


Coro

--8---7-------------------
--8---8---8-----10-----8--
----------9-----12-----9--
--------------------------
--------------------------
--------------------------

--8---7------------------
--8---8---8-----10-------
----------9-----12-------
------------------------- x2
-------------------------
-------------------------

solo

--8---7-------------------
--8---8---8-----10-----8--
----------9-----12-----9--
--------------------------
--------------------------
--------------------------

--8---7------------------
--8---8---8-----10-------
----------9-----12-------
------------------------- x2
-------------------------
-------------------------

--------10----12----8----
-------------------------
-------------------------
-------------------------
-------------------------
-------------------------

Final
--------15----------12----------------
--13----------13------------13----15--
--------------------------------------
--------------------------------------
--------------------------------------
--------------------------------------
--------15----------12-----
--13----------13-----------
---------------------------
---------------------------
---------------------------
---------------------------


--------15----------12----------------------
--13----------13------------13----15----13--
--------------------------------------------
--------------------------------------------
--------------------------------------------
--------------------------------------------

 D
        D        
ivisión Minúscula

Este fichero es trabajo propio de su transcriptor y representa su interpretación personal de la canción. El material contenido en esta página es para exclusivo uso privado, por lo que se prohibe su reproducción o retransmisión, así como su uso para fines comerciales.



Buscar canción en YouTube Buscar cover en YouTube


Más canciones