Poliuretano (TAB) (4)


Intro: 
Guitarra 1: 
e|------------------| 
b|------------------| 
G|---5-4-5----5-4---| 
D|-5-5-4-5--5-5-4-7-| x3.. en la segunda entra la guitarra 2 
A|-5-3-2-3--5-3-2-7-| 
E|-3--------3-----5-| 
 
Guitarra 1 y 2: 
e|---------------------------------|  |------------------------ 
b|---------------------------------|  |------------------------ 
G|---4/5-4/5-4/5-------------------|  |---4/5-4/5-4/5---7/9/11- 
D|-5-4/5-4/5-4/5-7-----------------|x2|-5-4/5-4/5-4/5-7-x/x/x-- 
A|-5-2/3-2/5-2/3-7-5-3-2-0---------|  |-5-2/3-2/3-2/3-7-5/7/9-- 
E|-3-------------5---------3-2-3-5-|  |-3-------------5-------- 
 
Cont... 				     |Guitarra 1 |Guitarra 2 | 
---------------------------------|-----------|-----------|---7-------| 
---------------------------------|-----------|-----------|-------8---| 
---4/5-4/5-4/5-------------------|-----------|--5--4-----|-----------| 
-5-4/5-4/5-4/5-7-----------------|-5---2-3-5-|--------5--|-----------| 
-5-2/3-2/5-2/3-7-5-3-2-0---------|-5---2-3-5-|-----------|-----------| 
-3-------------5---------3-2-3-5-|-3---0-1-3-|-----------|-----------| 
 
Verso: 
Guitarra 1 y 2: 
e|---------------| 
b|---------------| 
G|---5-4----5-7--| 
D|-5-5-4--2-5-7--| x4 
A|-5-3-2--2-3-5--| 
E|-3------0------| 
 
Pre-coro: 
Guitarra 1: 
e|--------------------------------------------- 
b|--------------------------------------------- 
G|--------------------------------------------- 
D|---5------7--------------------5------7----5- 
A|-3---3--5---5----5------2----3---3--5---5--5- 
E|---------------3---3--0---0----------------3- 
  C
        C        
ont... ----------------------------------------------------| ----------------------------------------------------| ------------------------------------------------7---| ---5------7--------------------5-----5------7-----7-| -3---3--5---5----5------2----3---3-3---3--5---5-----| ---------------3---3--0---0-------------------------| Guitarra 2: e|--------------------------------| |----------| b|--------------------------------| |----------| G|--12-12--12-12------------------| |--12--14--| D|--12-12--12-12-10/12-10-9-10-9--|x3|--xx--xx--| A|--10-10--10-10------------------| |--10--12--| E|--------------------------------| |----------| Coro: Guitarra 1 y 2: e|-------------- b|-------------- G|-------5--7--- D|-5--2--5--7--- x3 A|-5--2--3--5--- E|-3--0--------- Cont... G
        G        
uitarra 1: -------------------------| -------------------------| --9--7--5-----------5--7-| --9--7--5--5--4--2--5--7-| --7--5--3--5--4--2--3--5-| -----------3--2--0-------|  C
        C        
ont... G
        G        
uitarra 2: -------------------------| -------------------------| -9--11-12-----------5--7-| -x--x---x--5--4--2--5--7-| -7--9--10--5--4--2--3--5-| -----------3--2--0-------| Bridge: Guitarra 1: e|--------------------------| b|--------------------------| G|----5--4--5------5--4-----| D|-5--5--4--5---5--5--4--7--| x2 A|-5--3--2--3---5--3--2--7--| E|-3------------3--------5--| Guitarra 2: entra en la segunda. e|--------------------------------------------------------| b|--------------------------------------------------------| G|-12-12--12/11--12/11--12-12--12/11--12/11--12-12--12/14-| D|--x--x---x/x----x/x----x--x---x/x----x/x----x--x---x/x--| A|-10-10--10/9---10/9---10-10--10/9---10/9---10-10--10/12-| E|--------------------------------------------------------| Verso. Pre-coro. Coro. Solo: Guitarra 1: e|---------------------| |------------------| b|---------------------| |------------------| G|-5--7--------5--7----| |-5--7-----9--5--7-| D|-5--7--5--2--5--7--5-|x2|-5--7--5--9--5--7-| A|-3--5--5--2--3--5--5-| |-3--5--5--7--3--5-| E|-------3--0--------3-| |-------3----------| Guitarra 2: e|-------------------------------------------------7/8-7----- b|--8-10-8-8-7--7-8-10-8-10h8-7h8h7--8-10-8-8-7--7-------8--- G|--7-7--7-7-7--7-7-7--7-7----7------7-7--7-7-7--7----------- D|----------------------------------------------------------- A|----------------------------------------------------------- E|----------------------------------------------------------- Cont... -------------------------8-8-8-8----------- -8-10-8-8-8--8-10-8-8-10-8-8-8-8----------- -7-7--7-7-7--7-7--7-7-7--7-7-7-7—-4/5-4---- ----------------------------------------5-- ------------------------------------------- ------------------------------------------- Cont... --8h7-8-10—8h7-8-10—8h7-7h8h7--| |----------------------17-15~-| -------------------------------| |-------------------17--------| -------------------------------| |--5/7-5-5-5h4-7/14-----------| -------------------------------|x2|-----------------------------| -------------------------------| |-----------------------------| -------------------------------| |-----------------------------| Pre-coro: Guitarra 1 y 2: e|----------------------------------------- b|----------------------------------------- G|--5--7-----9--5--7-----5--7-----9--5--7-- D|--5--7--5--9--5--7--5--5--7--5--9--5--7-- A|--3--5--5--7--3--5--5--3--5--5--7--3--5-- E|--------3-----------3--------3----------- Coro/outro: Guitarra 1 y 2: e|--------------| |-----------------------------| b|--------------| |-----------------------------| G|-------5--7---| |--9--7--5-----------5--7-----| D|-5--2--5--7---|x3|--9--7--5--5--4--2--5--7--5--| A|-5--2--3--5---| |--7--5--3--5--4--2--3--5--5--| E|-3--0---------| |-----------3--2--0--------3--| comentrarios a: joselo_57 gracias.

 D
        D        
ivisión Minúscula

Este fichero es trabajo propio de su transcriptor y representa su interpretación personal de la canción. El material contenido en esta página es para exclusivo uso privado, por lo que se prohibe su reproducción o retransmisión, así como su uso para fines comerciales.



Buscar canción en YouTube Buscar cover en YouTube


Más canciones