Maquillaje de la forma más romantica (TAB) (3)


Intro

(1era lira)

----3------3------3-----3-----------2-----2-----3----------
------3------3------3-----3---3-------3-----3---3---3---3--
--------0-------------0-----0-----------0-------0-----4----
------------------------------------------------2----------
---------------------------------2--------------3----------
-3--------------2------------------------------------------

(2nda lira)

---------------------
---------------------
-------------7---7---
-------------7-9-7---
-------------5-9-5---
---------------7-----


verso

(1era lira) X2

lagrimas corren el maquillaje
y se desprende su vestido de noche
si tan solo asi pudieran botarse
en el suelo a todo a quien conoce

---------3-3-3---------3-3-3-
---------3-3-3---------3-3-3-
---------0-0-0---------0-0-0-
---------0-0-0---------2-2-2-
---------2-2-2---------3-3-3-
-0-0-2-3-3-3-3-3-3-2-0-x-x-x-


a esos labios que no besan en serio
solo buscan oportuno el momento
de largarse no sin antes decirme


(1era lira) X2

---------3-3-3---------3-3-3-
---------3-3-3---------3-3-3-
---------0-0-0---------0-0-0-
---------0-0-0---------2-2-2-
---------2-2-2---------3-3-3-
-0-0-2-3-3-3-3-3-3-2-0-x-x-x-

(2nda lira) X3

-------------------
-2h3---------------
-----4-2-2h4-2-2-0-
-------------------
-------------------
-------------------


Pre coro

no me busques, yo te llamaré

(1era lira)

---0-----0------2-----2-----2---
-----3-----3------3-----3-------
-0-----0------0-----0-----0-----
--------------------------------
--------------------------------
--------------------------------

Coro

   y espera el amanceer,        es cruel pero ella lo ve de la forma más

(1era lira)

----3------3------3-----3-----------2-----2---------------3-----3----------
------3------3------3-----3---3-------3-----3---------------3-----3---3----
--------0-------------0-----0-----------0---------------------0-----0------
---------------------------------------------------------------------------
---------------------------------2----------------------3------------------
-3--------------2----------------------------------------------------------

(2nda lira)

---------------------------------------------------------------------------
---------------------------------------------------------------------------
---------------------------------4----------------------5------------------
-5--------------4----------------4----------------------5------------------
-5--------------4----------------2----------------------3------------------
-3--------------2----------------------------------------------------------


romántica

(1era lira)

---------------------------------
-3-3-----------------------------
-----4-4-4-2-2-4-4-4-4-2-2-2-0-0-
---------------------------------
---------------------------------
---------------------------------

(2nda lira)

-----------------
-----------------
-7-7-7-x-x-------
-7-7-7-x-x-7-x-9-
-5-5-5-x-x-7-x-9-
-----------5-x-7-


   se siente desvanecer,         es triste pero ella lo ve de la forma más

(1era lira)

----3------3------3-----3-----------2-----2---------------3-----3----------
------3------3------3-----3---3-------3-----3---------------3-----3---3----
--------0-------------0-----0-----------0---------------------0-----0------
---------------------------------------------------------------------------
---------------------------------2----------------------3------------------
-3--------------2----------------------------------------------------------

(2nda lira)

---------------------------------------------------------------------------
---------------------------------------------------------------------------
---------------------------------4----------------------5------------------
-5--------------4----------------4----------------------5------------------
-5--------------4----------------2----------------------3------------------
-3--------------2----------------------------------------------------------


romántica                         (de la forma más)
romántica

(1era lira) X2

---------------------------------
-3-3-----------------------------
-----4-4-4-2-2-4-4-4-4-2-2-2-0-0-
---------------------------------
---------------------------------
---------------------------------

(2nda lira) X2

-----------------
-----------------
-7-7-7-x-x-------
-7-7-7-x-x-7-x-9-
-5-5-5-x-x-7-x-9-
-----------5-x-7-


Verso 2

y esta noche bailará entre esqueletos    mientras grita y canta
manifiestos de libertad apricionada en sustancias  que solo
logran restregarle en la cara

-3--------------------------------------3--------------------------
-3--------------------------------------3--------------------------
-0--------------------------------------0--------------------------
-0--------------------------------------2--------------------------
-2--------------------------------------3--------------------------
-3--------------------------------------x--------------------------



que si no hay nadie aqui si es su culpa
y si en los infomerciales resulta
que hoy en día en esta vida, en este mundo

(1era lira) X2

---------3-3-3---------3-3-3-
---------3-3-3---------3-3-3-
---------0-0-0---------0-0-0-
---------0-0-0---------2-2-2-
---------2-2-2---------3-3-3-
-0-0-2-3-3-3-3-3-3-2-0-x-x-x-

(2nda lira) X3

-------------------
-2h3---------------
-----4-2-2h4-2-2-0-
-------------------
-------------------
-------------------

tu tienes opciones (esto lo toca la 1era lira)

---0-----0------2-----2-----2---
-----3-----3------3-----3-------
-0-----0------0-----0-----0-----
--------------------------------
--------------------------------
--------------------------------

-Se repite coro-

Puente

      y vive las horas          cuando está sola
      y vive las horas          cuando está sola

(1era lira) X2

----------------------------------------
-3---3--------------------3-------------
---4------------------------4-2-2h4-2-0-
----------------------------------------
----------------------------------------
----------------------------------------

(2nda lira) X2

----------------------------------------
----------------------------------------
-7---7--------------------7-------------
-7-9-7--------------------7-9-7---------
-5-9-5--------------------5-9-7---------
---7------------------------7-5---------

Luego se repite lo mismo tocando junto con el órgano, teclado o
 lo que sea...


(1era lira) X2

----------------------------------------
-3---3--------------------3-------------
---4------------------------4-2-2h4-2-0-
----------------------------------------
----------------------------------------
----------------------------------------

(2nda lira) X2

----------------------------------------
----------------------------------------
-7---7--------------------7-------------
-7-9-7--------------------7-9-7---------
-5-9-5--------------------5-9-7---------
---7------------------------7-5---------

Pre coro

(1era lira)

---0-----0------2-----2-----2---
-----3-----3------3-----3-------
-0-----0------0-----0-----0-----
--------------------------------
--------------------------------
--------------------------------

Luego sigue un bajeo que creo que se puede sacar en la guitarra
pero no lo escucho bien... si alguien lo saca pues me avisa

---------------------------------
-3-3-----------------------------
-----4-4-4-2-2-4-4-4-4-2-2-2-0-0-
---------------------------------
---------------------------------
---------------------------------

Coro

al final dice:

de la forma más romántica 4 veces... se toca igual

y termina


(1era lira) X2

-------------------
-3---3-------------
---4---------------
-------------------
-------------------
-------------------

(2nda lira) X2

-------------------
-------------------
-7---7-------------
-7-9-7-------------
-5-9-5-------------
---7---------------




espero les sirva este tab, está medio largo pero pues hace ciertos cambios
y tenía que anotarlos... de ahi en fuera es muy sencilla de seguir la rola
además que está conmadre...

 D
        D        
ivisión Minúscula

Este fichero es trabajo propio de su transcriptor y representa su interpretación personal de la canción. El material contenido en esta página es para exclusivo uso privado, por lo que se prohibe su reproducción o retransmisión, así como su uso para fines comerciales.



Buscar canción en YouTube Buscar cover en YouTube


Más canciones