Esfumar (BAJ) (4)


Intro: 
 
G:----------------------------------| 
D:-------2-0------------------------|  Se 
A:--0-2-4---4-2-0-0-2-2-0--0-0-2-2--|repite 
E:2---------------------------------| 
 
G:------------------------------------| 
D:--------4---------------------------| 
A:--0-2-4---5-4-2-0-0-2-2-0--0-0-2-2-0|repite 
E:2-----------------------------------| 
 
pre coro: 
G:------------------------------------------------------------------- 
D:----------------------------------------------------0-0-0-0-0-0-0-0 
E:4-4-4-4-4-4-4-4-4-4-2-2-2-2-2-2-2-2-4-4-4-4-4-4-4-4---------------- 
A:------------------------------------------------------------------- 
 
Aqui se repite el intro y la segunda parte, despues 
hay cambios en el precoro que van asi: 
G:------------------------------------------ 
D:------------------------------------------ 
E:4-4-2-4-4-2-4--2-2-0-2-2-0-4-4-2-2-5-5-5-5 
A:------------------------------------------ 
 
coro 
G:-------------------------------------------------- 
D:--------------------3-3-3-3-3-3-3-2-2-2-2-2-2-2-2- 
E:4-4-2-2-2-4-4-2-2-2------------------------------- 
A:-------------------------------------------------- 
 
en el solo de la guitarra el bajo va igual que en el intro 
y en el final, igual que en el coro. 
Eso es todo¡¡¡¡¡¡¡¡¡¡¡¡¡¡¡¡¡¡facil, no ?????????????

 D
        D        
eSaloon

Este fichero es trabajo propio de su transcriptor y representa su interpretación personal de la canción. El material contenido en esta página es para exclusivo uso privado, por lo que se prohibe su reproducción o retransmisión, así como su uso para fines comerciales.