Carne


    Intro (Fig.1)
    E
        E        
-----------------0---------------------0------  B
        B        
----3--------3-----------3--------3-----------  G
        G        
------3--------3-----------3--------3--------- X2  D
        D        
----------------------------------------------  A
        A        
--3--------------------3----------------------  E
        E        
-----------3--------------------3------------- Versos (Fig.2)  E
        E        
-----------------0---------------------0------  B
        B        
----3--------3-----------3--------3-----------  G
        G        
------3--------3-----------3--------3--------- X2  D
        D        
----------------------------------------------  A
        A        
--3--------------------3----------------------  E
        E        
-----------3--------------------3-------------  E
        E        
-----------------------  B
        B        
----1--------4---------  G
        G        
------2--------5-------  D
        D        
-----------------------  A
        A        
--3--------3-----------  E
        E        
----------------------- carne, huelo carne, tu haces hambre estoy apunto de comerte hambre, solo es hambre sabes bien que sabes muy bien, oh  C
        C        
oro  G
        G        
5  C
        C        
5  Cm
       Cm       
y mi carne esta apunto de hablar con tu alma Eb
       Eb       
   F
        F        
 G
        G        
5 y decirle a la cara, no te amo mas  C
        C        
5  Cm
       Cm       
Eb
       Eb       
   F
        F        
seamos carne, solo carne  F
        F        
ig.2 carne, todo es carne dejame pecar se esta pudriendo el amor  C
        C        
oro (X2) y mi carne esta apunto de hablar con tu alma y decirle en la cara no te amo mas seamos carne solo carne seamos carne!! solo carne!!  F
        F        
ig.1 seamos carne.... solo carne....  A
        A        
cordes  G
        G        
5  C
        C        
5  Cm
       Cm       
Eb
       Eb       
   F
        F        
 E
        E        
-----------3--------1------  B
        B        
-----------4--------1------  G
        G        
------5----5---8----2------  D
        D        
--5---5----5---8----3------  A
        A        
--5---3----3---6----3------  E
        E        
--3---3----3---6----1------

 D
        D        
eSaloon

Este fichero es trabajo propio de su transcriptor y representa su interpretación personal de la canción. El material contenido en esta página es para exclusivo uso privado, por lo que se prohibe su reproducción o retransmisión, así como su uso para fines comerciales.