Abrázame (BAJ)


Intro (0:02)
G|--------------------------------------|
D|--------------------------------------|
A|--5-5-5-5/7-7-7-7-7-7-7-7-7-7-7-7-7---|
E|--------------------------------------|

G|-----------------------------------------------------------|
D|-----------------------------------------------------------|x2
A|-2-2-2-2-2-0-0-0-0-0-0-0-5-5-5-5/7-7-7-7-7-7-7-7-7-7-7-7-7-|
E|-----------------------------------------------------------|

1° Verso (l bajo empieza en 0:24, para n 0:30, y komienza de nuevo n 0:36)
G|-----------------------------------------------------------|
D|-----------------------------------------------------------|
A|-2-2-2-2-2-0-0-0-0-0-0-0-5-5-5-5/7-7-7-7-7-7-7-7-7-7-7-7-7-|x2
E|-----------------------------------------------------------|

G|-----------------------------|
D|-----------------------------|
A|-5/7-7-7-7-7-7-7-7-7-7-7-7-7-|
E|-----------------------------|

Coro (0:45)
G|-------------------------------------------------------------------|
D|-------------------------------------------------------------------|
A|-2-2-2-2-2-2-2-2-0-0-0-0-0-0-0-0-----------------------------------|x4
E|---------------------------------0-0-0-0-0-0-0-0-3-3-3-3-3-3-3-3-3-|

2° Verso (l bajo mpieza n 1:15)
G|-----------------------------------------------------------|
D|-----------------------------------------------------------|
A|-2-2-2-2-2-0-0-0-0-0-0-0-5-5-5-5/7-7-7-7-7-7-7-7-7-7-7-7-7-|x3
E|-----------------------------------------------------------|

Precoro(1:32)
G|----------------------------------------------------------------------|
D|----------------------------------------------------------------------|
A|-5-5-5-5-5-5-5-5-0-0-0-0-0-0-0-0------------------/10-10-10-9-9-9-9-9-|
E|---------------------------------3-3-3-3-3-3-3-3-3--------------------|

G|-----------------------------------------------------------------|
D|-----------------------------------------------------------------|
A|-5-5-5-5-5-5-5-5-0-0-0-0-0-0-0-0-7-7-7-7-7-7-7-7-7-7-7-7-7-7-7-7-|
E|-----------------------------------------------------------------|

G|---------------------|
D|---------------------|
A|-5/7-7-7-7-7-7-7-7-7-|
E|---------------------|

Coro (01:48)

Puente (02:12)
G|----------------------------------------------|
D|----------------------------------------------|
A|-------------------2---2-2-2h3-2--------2-----|x3
E|-5-5-5-5-5-0-0-0-0---0----------3-3-3-3---3---|

G|-----------------------|
D|-----------------------|
A|-------------------2---|
E|-5-5-5-5-5-0-0-0-0---0-|

Intro (02:35)

Precoro (02:45)

Coro (03:00)

Puente (03:23)x2

Outro (04:11)
G|---------------------------------------|
D|---------------------------------------|
A|-5-5-5-5/7-7---------------------------|
E|---------------------------------------|

 D
        D        
eSaloon

Este fichero es trabajo propio de su transcriptor y representa su interpretación personal de la canción. El material contenido en esta página es para exclusivo uso privado, por lo que se prohibe su reproducción o retransmisión, así como su uso para fines comerciales.