Hacedor de historia (BAJ) (2)


Se han agregado algunos detalles y se han suprimido errores,
actualmente la tablatura esta mas de acorde con la canción.

Intro

Empieza con los strings
B------------------------------------|-----------------------------------|
E--5-5-5--5-5-5-5---5-5-5---5-5-5-5--|--1-1-1--1-1-1-1---1-1-1---1-1-1-1-|
A------------------------------------|-----------------------------------|
D------------------------------------|-----------------------------------|
G------------------------------------|-----------------------------------|

Estrofa I: x 2
B------------------------------------|-----------------------------------|
E--5-5-5--5-5-5-5---5-5-5---5-5-5-5--|--1-1-1--1-1-1-1---1-1-1---1-1-1-1-|
A------------------------------------|-----------------------------------|
D------------------------------------|-----------------------------------|
G------------------------------------|-----------------------------------|

Si, eso es verdad...                    Y yo lo creo...
B-----------------------------------|------------------------------------|
E-3-3-3---3-3-3----3-3-3---3-3-3----|-1-1-1---1-1-1-----1-1-1---1-1-1----|
A-----------------------------------|------------------------------------|
D-----------------------------------|------------------------------------|
G-----------------------------------|------------------------------------|

Vivo para ti
B------------------------------------|
E----------------------1-1-----------|
A-3-3----2-2----0-0------------------|
D------------------------------------|
G------------------------------------|

Coro:
B------------------------------------|-----------------------------------|
E-------------------------1-1--------|-------------------------1-1-------|
A----3-3----3-3----0-0---------------|----3-3----3-3----0-0--------------|
D------------------------------------|-----------------------------------|
G------------------------------------|-----------------------------------|

B------------------------------------|-----------------------------------|
E-------------------------1-1--------|-------------------------1-1-------|
A----0-0----2-2----3-3---------------|----3-3----2-2----0-0--------------|
D------------------------------------|-----------------------------------|
G------------------------------------|-----------------------------------|

Estrofa II: x 3
B---------------------------------------------|
E--5-5-5----------------5-5-5-----------------|
A--------------------7-------------------7----|
D---------7-7-s-9-7-----------7-7-s-9-7-------|
G---------------------------------------------|

B--------------------------------------------|
E--1-1-1--------------1-1-1------------------|
A-------------------3------------------3-----|
D---------3-3-s-5-3---------3-3-s-5-3--------|
G--------------------------------------------|


Si, eso es verdad...
B-------------------------------------------|
E--3-3-3----------------3-3-3---------------|
A--------------------3-------------------3--|
D---------3-3-s-5-3-----------3-3-s-5-3-----|
G-------------------------------------------|


B--------------------------------------------|
E-1-1-1----------------1-1-1-----------------|
A-------------------1--------------------1---|
D--------1-1-s-3-1------------1-1-s-3-1------|
G--------------------------------------------|


Vivo para ti
B------------------------------------|          B
        B        
-------------------------| E----------------------1-1-----------|  E
        E        
-------------------------| A-3-3----2-2----0-0------------------|  F
        F        
in:  A
        A        
------5-2-3--------------| D------------------------------------|  D
        D        
--3-2--------------------| G------------------------------------|  G
        G        
-------------------------| Luego se quedan solo las voces, luego otra vez el coro 2 veces En el solo de guitarra se queda en el coro Chicos de E
        E        
Fei Squad Youth Team, aquí esta su representación. Saludos a todos esos Protagonistas del Reino.

 C
        C        
laudio F
        F        
reidzon

Este fichero es trabajo propio de su transcriptor y representa su interpretación personal de la canción. El material contenido en esta página es para exclusivo uso privado, por lo que se prohibe su reproducción o retransmisión, así como su uso para fines comerciales.



Buscar canción en YouTube Buscar cover en YouTube


Más canciones