Dream Baby


(INTRO)
G|/5------/5-------3---------------|---------------------------------|
D|------------------------/6--/6---|-3---------------3---------------|
A|---------------------------------|---------3---------------3-------|
E|---------------------------------|---------------------------------|

(CHORUS)

G|---------------------------------|---------------------------------|
D|---------5---------------5-------|---------5---------------5-------|
A|-3---------------3---------------|-3---------------3-----------1---|
E|---------------------------------|---------------------------------|



G|---------------------------------|---------------------------------|
D|---------------------------------|---------------------------------|
A|-3---------------3---------------|-3---------------3-----------3---|
E|---------3---------------3-------|---------3---------------3-------|



G|---------------------------------|---------------------------------|
D|-3---------------3---------------|-3---------------3-----3-2-------|
A|---------3---------------3-------|---------3-------------------5---|
E|---------------------------------|---------------------------------|



G|---------------------------------|---------------------------------|
D|---------5---------------5-------|-3---------------3-----3-2-------|
A|-3---------------3---------------|---------3-------------------5---|
E|---------------------------------|---------------------------------|



(VERSE)


G|---------------------------------|---------------------------------|
D|---------5-----------------------|---------------------------------|
A|-3---------------3---------------|-3---------------3-----------1---|
E|-------------------------3-------|---------3---------------3-------|



G|---------------------------------|---------------------------------|
D|---------------------------------|---------------------------------|
A|-3---------------3---------------|-3---------------3-----------3---|
E|---------3---------------3-------|---------3---------------3-------|



G|---------------------------------|---------------------------------|
D|-3---------------3---------------|-3---------------3-----------3---|
A|---------3---------------3-------|---------3---------------3-------|
E|---------------------------------|---------------------------------|



G|---------------------------------|-----------------|
D|---------------------------------|-----------------|
A|-3---------------3---------------|-3---------------|
E|---------3---------------3-------|---------3-------|



G|---------------------------------|
D|-3---------------3---3---2-------|
A|---------3-------------------5---|
E|---------------------------------|



(CHORUS)


G|---------------------------------|---------------------------------|
D|---------------------------------|---------------------------------|
A|-3---------------3---------------|-3---------------3-----------1---|
E|---------3---------------3-------|---------3---------------3-------|



G|---------------------------------|---------------------------------|
D|---------------------------------|---------------------------------|
A|-3---------------3---------------|-3---------------3-----------3---|
E|---------3---------------3-------|---------3---------------3-------|



G|---------------------------------|---------------------------------|
D|-3---------------3---------------|-3---------------3-------2-------|
A|---------3---------------3-------|---------3-------------------5---|
E|---------------------------------|---------------------------------|



G|---------------------------------|---------------------------------|
D|---------5-----------------------|-3---------------3---3---2-------|
A|-3---------------3---------------|---------3-------------------5---|
E|-------------------------3-------|---------------------------------|



(VERSE)


G|---------------------------------|---------------------------------|
D|---------------------------------|---------------------------------|
A|-3---------------3---------------|-3---------------3-----------1---|
E|---------3---------------3-------|---------3---------------3-------|



G|---------------------------------|---------------------------------|
D|---------------------------------|---------------------------------|
A|-3---------------3---------------|-3---------------3-----------3---|
E|---------3---------------3-------|---------3---------------3-------|



G|---------------------------------|---------------------------------|
D|-3---------------3-----------1---|-3---------------3-------2-------|
A|---------3---------------3-------|---------3-------------------5---|
E|---------------------------------|---------------------------------|



G|---------------------------------|-----------------|
D|---------------------------------|-----------------|
A|-3---------------3---------------|-3---------------|
E|---------3---------------3-------|---------3-------|



G|---------------------------------|
D|-3---------------3---3---2-------|
A|---------3-------------------5---|
E|---------------------------------|



(CHORUS)


G|---------------------------------|---------------------------------|
D|---------5---------------5-------|---------------------------------|
A|-3---------------3---------------|-3---------------3-----------1---|
E|---------------------------------|---------3---------------3-------|



G|---------------------------------|---------------------------------|
D|---------------------------------|---------------------------------|
A|-3---------------3---------------|-3---------------3-----------3---|
E|---------3---------------3-------|---------3---------------3-------|



G|---------------------------------|---------------------------------|
D|-3---------------3---------------|-3---------------3-----------3---|
A|---------3---------------3-------|---------3---------------3-------|
E|---------------------------------|---------------------------------|



G|---------------------------------|---------------------------------|
D|---------------------------------|---------------------------------|
A|-3---------------3---------------|-3-------------------------------|
E|---------3---------------3-------|---------------------------------|



G|---------------------------------|---------------------------------|
D|---------------------------------|---------------------------------|
A|-3-------------------------------|---------------------------------|
E|---------------------------------|---------------------------------|

The B
        B        
eatles

Este fichero es trabajo propio de su transcriptor y representa su interpretación personal de la canción. El material contenido en esta página es para exclusivo uso privado, por lo que se prohibe su reproducción o retransmisión, así como su uso para fines comerciales.