Baby's In Black


Intro/Riff:


  E
        E        
|-------------------------------|  B
        B        
|--2----------------------------|  G
        G        
|-------4---2-------------------|  D
        D        
|---------------4---2-----------|  A
        A        
|--0---------------------0---0--|  E
        E        
|-------0-----------------------|
A
        A        
   E
        E        
Oh dear what can i do? D
        D        
   E
        E        
 A
        A        
 D
        D        
babys in black and im feeling blue tell me oh what  A
        A        
(Riff) Can i do? A
        A        
  A7
       A7       
   D
        D        
She thinks of him and so she dresses in black and though he'll never come A
        A        
   E
        E        
 A
        A        
back shes dressed in black A
        A        
   E
        E        
Oh dear what can i do? D
        D        
   E
        E        
 A
        A        
 D
        D        
babys in black and im feeling blue tell me oh what  A
        A        
Can i do? A
        A        
  A7
       A7       
   D
        D        
 A
        A        
 E
        E        
I think of her but she thinks only of him and though its only a whim she  A
        A        
thinks of him F#m
       F#m       
  B7
       B7       
   D
        D        
 E
        E        
 A
        A        
Oh how long will it take till she sees the mistake she has made  E
        E        
 D
        D        
 E
        E        
 A
        A        
 D
        D        
dear what can i do babys in black and im feeling blue tell me oh what can i A
        A        
  do Solo:  A
        A        
 E
        E        
 A
        A        
 E
        E        
 D
        D        
 A
        A        
 E
        E        
 A
        A        
e|------------ ------------|------------ ------------|  B
        B        
|2------------------------|-------------------------|  G
        G        
|---------4B6R4---2-------|----------4-B6-R-4---2--0H  D
        D        
|---------------------4---|-------------------------|  A
        A        
|-------------------------|0------------------------|  E
        E        
|-------------------------|-------------------------|
e|----2------- 0-----------|------------ ------------|  B
        B        
|------------0------------|----3-----3-1-----------|  G
        G        
|1----------1-------------|-----------------------7-/  D
        D        
|------------------------3/4---------4-2-----------|  A
        A        
|-------------------------|-------------------------|  E
        E        
|-------------------------|-------------------------|
e|-----9------ 7-----------|------------ ------------|  B
        B        
|-------------------------|-------------------------|  G
        G        
|8B9-------7--------------|4-B-6-----6-R4---2-------|  D
        D        
|-------------------------|---------------------4---|  A
        A        
|-------------------------|-------------------------|  E
        E        
|-------------------------|-------------------------|
F#m
       F#m       
  B7
       B7       
   D
        D        
 E
        E        
 A
        A        
Oh how long will it take till she sees the mistake she has made  E
        E        
 D
        D        
 E
        E        
 A
        A        
 D
        D        
dear what can i do babys in black and im feeling blue tell me oh what can i A
        A        
   E
        E        
do A
        A        
  A7
       A7       
   D
        D        
She thinks of him and so she dresses in black and though he'll never come A
        A        
   E
        E        
 A
        A        
back shes dressed in black A
        A        
   E
        E        
Oh dear what can i do? D
        D        
   E
        E        
 A
        A        
 D
        D        
babys in black and im feeling blue tell me oh what  A
        A        
(Riff) Can i do?

The B
        B        
eatles

Este fichero es trabajo propio de su transcriptor y representa su interpretación personal de la canción. El material contenido en esta página es para exclusivo uso privado, por lo que se prohibe su reproducción o retransmisión, así como su uso para fines comerciales.