El Detenido (BAJ) (4)


Verso 
      
Tantas huellas que cicatrizar, sin una explicación 
En el suelo de cualquier lugar 
Pero no lo alcanza el sol 
G------------------------------------------ 
D------------------------------------------ 
A-----------4-4-4-4-4-----------5-5-5-5-5-- 
E-5-5-5-5-5-----------3-3-3-3-3------------ 
 
Puente 
Donde la realidad, duerme escondida 
G------------------------------------------ 
D------------------------------------------ 
A-------5-5-5-5-5-------------------------- 
E-1-----------------1---------------------- 
 
Verso 
Ya no puedo desaparecer, sin una explicación 
En el aire siempre quedara metralla al corazón 
 
Puente 
Ráfaga sin cesar, nada que perdonar 
Perdonar... 
 
Coro: 
Soy un detenido soy, mi sueño no descansa 
Desaparecido voy  
 
G----------------------------|------------------------- 
D----------------------------|------------------------- 
A------0--2---3-3---5---7----|------0--2---3-3--5---7-- 
E-3-3------------------------|-3-3--------------------- 
 
G------------------------------------------------------- 
D----------------------------5-------7---5--4-----5--4-- 
A------0--2---3-3---5---7--------7-------------5-------- 
E-3-3--------------------------------------------------- 
 
Después de los coros viene esto: 
    
He aprendido a abrazar la soledad 
G---------------------------------------------  
D--------------------------------------------- 
A---------------3-----5-----7----------------- 
E-5-5-5-5-5----------------------------------- 
 
Pa,pa,pa... 
G-----------------2--------------------------- 
D-----------2-4-5---5-4-2--------------------- 
A-----2-3-5---------------5-3-2--------------- 
E-3-5---------------------------5------------- 
 
Tengo miles de recuerdos para armar 
G---------------------------------------------  
D--------------------------------------------- 
A---------------3-----5-----7----------------- 
E-5-5-5-5-5----------------------------------- 
 
Aaaaaaaaa... 
G--------------------------------------------- 
D--------------------------------------------- 
A-----2-3-5-------0-2------------------------- 
E-3-5-------0-2-4----------------------------- 
 
Verso: 
Ya no puedo desaparecer sin una explicación... 
 
Puente: 
Ráfaga sin cesar, nada que perdonar 
Perdonar... 
 
Coro 
Soy un detenido soy... 
 
Interludio: Se hace lo mismo que en el verso  
 
Puente 
Nada que perdonar, nada que olvidar 
Que olvidar... 
En esta parte se hace lo mismo que en el coro hasta el final y  
la canción termina en sol. E
        E        
sta perfecto el tab solo que tengo * alguna duda en cuantas veces hay que tocar cada nota en el verso pero hay ud al escuchar la canción lo cachan, saludos a Diego F
        F        
redes que colaboro a sacar esta cancion y vivan los Mookie de talca

Los B
        B        
unkers

Este fichero es trabajo propio de su transcriptor y representa su interpretación personal de la canción. El material contenido en esta página es para exclusivo uso privado, por lo que se prohibe su reproducción o retransmisión, así como su uso para fines comerciales.