Deudas (BAJ) (4)


Como no estaba para bajo, la saque y ahora la comparto...

Introduccion:

G-------------------------------------------------------
D-------------------------------------------------------
A--3-3-3---0-3---0-3----3---2-2-2---0-2--0-2---2--1-1-1-
E--------3-----3------3-----------3-----3----3----------


G------3-3-2-------------------------------------
D------------5-5-3-2-3-3-3-------3-3-2-----------
A----1-----------------------0-3-------5-5-3-2-3-
E--3---------------------------------------------


       Soy un montón de cuentas que en vida no puedo pagar
G--------------------------------------------------------
D--------------------------------------------------------
A--3-3-3----0-3---0-3----3---2-2-2---0-2--0-2---2--1-1-1-
E---------3-----3------3-----------3-----3----3----------


   Soy un montón de deudas que jamás podré saldar
G------3-3-2-------------------------------------
D------------5-5-3-2-3-3-3-------3-3-2-----------
A----1-----------------------0-3-------5-5-3-2-3-
E--3---------------------------------------------


         Todo lo que junté hasta hoy mañana no me servirá
G--------------------------------------------------------
D--------------------------------------------------------
A--3-3-3----0-3---0-3----3---2-2-2---0-2--0-2---2--1-1-1-
E---------3-----3------3-----------3-----3----3----------


 Las cosas que me haran mejor no lo puedo comprar
G-------3-3-2------------------------------------
D-------------5-5-3-2--3-3-3--------3-3-2--------
A-----1------------------------0-3--------5-5-3--(esta parte unanla
E---3--------------------------------------------de inmediato con el precoro)

Precoro:

  Me he cansado de tanto andar  por la calle sin pensar
G---------------------------------------------------------
D------------------------------5-5-5-----5-5-3-2-2--------(esto tmb
A--3-5-5-5----3-5----3-5----3--------0-3------------5-3-5-unanlo rapido)
E-----------5------5------5-------------------------------


   he dejado mis pies atrás sin saber, sin saber a donde van
G----------------------------------------------------------
D------------------------------5-5-5-----5-5-3-2-2---------
A--5-5-5----3-5----3-5----3----------0-3------------5-5-3--
E---------5------5------5----------------------------------


Aqui tocan nuevamente la estrofa inicial..es exactamente igual...

Yo siempre me negué a creer en un vieja religión
tal vez me equivoqué debi escoger el mal menor

Mira a mi alrededo-or buscando alguna lu-uz
pero no habia nada excepto tu, excepto tu

Coro

Me he cansado de tanto andar por la calle sin pensar
he dejado mis pies atras sin saber, sin saber a donde van....

aqui cambian de acuerdo a la melodia de la guitarra..a ritmo rapido

       woooooooooh woooooooooh wooooooooh woooooooooooooooh
G----------------------------------------------------------
D--------------------------------------------3-3-3-3-3-3-3-
A--3-3-3-3-3-3-3-2-2-2-2-2-2-2-1-1-1-1-1-1-1---------------
E----------------------------------------------------------

Ahora comienza el solo de guitarra....se sigue el mismo ritmo
de la parte anterior, pero termina diferente....

G------------------------------
D------------------------------
A--3-3-3-3-3-3-3-2-2-2-2-2-2-2-
E------------------------------

   la primera vez termina asi
G----------------3-3-2----------------------------------
D----------------------5-5-3-2-3-3-3-----3-3-2----------
A--1-1-1-1-1-1-1---------------------0-3-------5-5-3-2-3
E-------------------------------------------------------


G------------------------------
D------------------------------
A--3-3-3-3-3-3-3-2-2-2-2-2-2-2-
E------------------------------

   y la ultima antes de empezar nuevamente con el precoro...
G-------------------------------------------------
D---------------3-3-3-3-3-3-3/15-15-14-12-12------
A-1-1-1-1-1-1-1-----------------------------15-15-
E-------------------------------------------------

Precoro:
Me he cansado de tanto andar Por la calle sin pensar
he dejado mis pies atras sin saber, sin saber a donde van....

Y finalmente comienza el woooh denuevo
tal como esta arriva hasta qe se acaba....
Gracias y ojala este comprensible
ya que no es muy dificil....

Los B
        B        
unkers

Este fichero es trabajo propio de su transcriptor y representa su interpretación personal de la canción. El material contenido en esta página es para exclusivo uso privado, por lo que se prohibe su reproducción o retransmisión, así como su uso para fines comerciales.