Bailando Sólo (TAB)


Intro:

Rif 1
E|--------------------------------------------------------------||
B|--------------------------------------------------------------||
G|--10-10----10-10----10-10----10----10-12----------------------||
D|--------12-------12-------12----12----------------------------||
A|--------------------------------------------------------------||
E|--------------------------------------------------------------||

Rif 2
E|--------------------------------------------------------------||
B|--10-10------10-10----10-10----11-10--------------------------||
G|--------10---------10-------10-------12-10--------------------||
D|--------------------------------------------------------------||
A|--------------------------------------------------------------||
E|--------------------------------------------------------------||

 REm
       REm       
  FA
       FA       
   A
        A        
hora que estás aquí ahogado en medio de la gente REm
       REm       
  FA
       FA       
  y estás dispuesto a más de lo que puedes soportar REm
       REm       
  FA
       FA       
  los altavoces van amplificando las verdades REm
       REm       
  FA
       FA       
  ahora que estás aquí en medio de la soledad  C
        C        
ORO: REm
       REm       
  FA
       FA       
   B
        B        
ailando solo en la oscuridad LAm
       LAm       
  SOL
       SOL       
  te vas a acostumbrar a ver toda la vida pasar REm
       REm       
  FA
       FA       
  igual que una promesa al anochecer LAm
       LAm       
  SOL
       SOL       
  te puedes disolver al borde de un vaso de cristal REm
       REm       
   FA
       FA       
(RIFF
        F        
 1)  A
        A        
hora que estás aquí y que el futuro se te esconde REm
       REm       
   FA
       FA       
(RIFF
        F        
 1) ya has rasguñado el suelo y las paredes de tu habitación REm
       REm       
   FA
       FA       
(RIFF
        F        
 1) no quieres ver el sol, no quieres nada por las tardes LAm
       LAm       
  SOL
       SOL       
  ninguna sensación que nos haga sentir mejor  C
        C        
ORO:  B
        B        
ailando solo en la oscuridad te vas a acostumbrar a ver toda la vida pasar igual que una promesa al anochecer te puedes disolver al borde de un vaso de cristal PUENTE: FA
       FA       
 - SOL
       SOL       
 - LAm
       LAm       
 x3 REm
       REm       
   E
        E        
|-------------------||
 B
        B        
|-------------------||
 G
        G        
|--10-10-10---------|| x 16
 D
        D        
|-----------/12-----||
 A
        A        
|-------------------||
e|-------------------|| REm
       REm       
 - FA
       FA       
 - LAm
       LAm       
 - SOL
       SOL       
 x 2 REm
       REm       
 - FA
       FA       
  La ra la ra la la la ra la la (RIFF
        F        
 1) x 4 Rif 1 E|--------------------------------------------------------------|| B|--------------------------------------------------------------|| G|--10-10----10-10----10-10----10----10-12----------------------|| D|--------12-------12-------12----12----------------------------|| A|--------------------------------------------------------------|| E|--------------------------------------------------------------|| Saludos desde C
        C        
hile!

Los B
        B        
unkers

Este fichero es trabajo propio de su transcriptor y representa su interpretación personal de la canción. El material contenido en esta página es para exclusivo uso privado, por lo que se prohibe su reproducción o retransmisión, así como su uso para fines comerciales.