Angel para un final (TAB) (3)


 hola a todos esta es una transcripcion mas completla.

TAB                             ---INTRO---/TAB

TAB  e|--2---5--4--2-------2--0-----------------------------------------|/TAB
TAB  B
        B        
|--2-----------3----------3----5p3-----5-----5-----5--------------|/TAB TAB  G
        G        
|--2-------------------------------2------1-----2----4----1-2-4-6-|/TAB TAB  D
        D        
|--4--------------------------------------------------------------|/TAB TAB  A
        A        
|--4--------------------------------------------------------------|/TAB TAB  E
        E        
|--2--------------------------------------------------------------|/TAB TAB e|---9-7-5---5-5-2---------------------------------|/TAB TAB  B
        B        
|--10-9-7---7-4-3--5p3----5-----5-----5-----------|/TAB TAB  G
        G        
|---------------------2-----1-----2-----4--1-2----|/TAB TAB  D
        D        
|----------------------------------------------4--|/TAB TAB  A
        A        
|-------------------------------------------------|/TAB TAB  E
        E        
|-------------------------------------------------|/TAB TAB ---INTERMEDIO---/TAB TAB e|--5--4--2-------2--0-----------------------------------------|/TAB TAB  B
        B        
|----------3----------3----5p3-----5-----5-----5--------------|/TAB TAB  G
        G        
|------------------------------2------1-----2----4----1-2-4-6-|/TAB TAB  D
        D        
|-------------------------------------------------------------|/TAB TAB  A
        A        
|-------------------------------------------------------------|/TAB TAB  E
        E        
|-------------------------------------------------------------|/TAB TAB e|---9-7-5---5-5-2---------------------------------|/TAB TAB  B
        B        
|--10-9-7---7-4-3--5p3----5-----5-----5-----------|/TAB TAB  G
        G        
|---------------------2-----1-----2-----4--1-2----|/TAB TAB  D
        D        
|----------------------------------------------4--|/TAB TAB  A
        A        
|-------------------------------------------------|/TAB TAB  E
        E        
|-------------------------------------------------|/TAB TAB ----FINAL----/TAB TAB e|---9-7-5---5-5-2------------------------------------------2--|/TAB TAB  B
        B        
|--10-9-7---7-4-3--5p3----5-----5-----5--------------------2--|/TAB TAB  G
        G        
|---------------------2-----1-----2-----4--1-2-4-6-8-6-4---2--|/TAB TAB  D
        D        
|----------------------------------------------------------4--|/TAB TAB  A
        A        
|----------------------------------------------------------4--|/TAB TAB  E
        E        
|----------------------------------------------------------2--|/TAB  E
        E        
spero que les haiga gustado :)

Los B
        B        
unkers

Este fichero es trabajo propio de su transcriptor y representa su interpretación personal de la canción. El material contenido en esta página es para exclusivo uso privado, por lo que se prohibe su reproducción o retransmisión, así como su uso para fines comerciales.