Me enamoré otra vez (TAB) (2)


Esta es la version en vivo de la base guachines.
Espero que les guste. "EL TANGA" y aguante "La mastur"


E---------------------------------------------------------------
A---------------------------------------------------------------
D---------------------------------------------------------------
g---------------------------------6-----------------------------
b-4---------------6---------6-6-4---6-------6-6-------8---------
e---4-6-6-6-4-4-4---9-8-6-6-----------9-8-6-----9-8-6---4-6-8-8-

E---------------------------------------------------------------
A---------------------------------------------------------------
D---------------------------------------------------------------
g-----------------------------6---------------------------------
b-----------------------7-7-4---------6-----8-------------------
e-4-6-6-6-4-4-4-9-8-7-7---------9-8-6---9-8---4-6-4-4-----------


         A
        A        
Yo que tenía el corazón herido Bm
       Bm       
  yo que creí que todo había perdido  D
        D        
 E
        E        
ahora me siento tan distinto aquí contigo  A
        A        
Yo que juré jamás enamorarme Bm
       Bm       
  que nadie más podría lastimarme  D
        D        
 E
        E        
hoy te doy todo por dentro, por tus besos, C#m
       C#m       
   D
        D        
tus caricias, por tu forma de mirarme  E
        E        
me atrapaste de verdad  A
        A        
Me enamoré otra vez Bm
       Bm       
  como jamás pensé  D
        D        
 E
        E        
tu con tu risa borraste mis heridas  A
        A        
Me enamoré otra vez Bm
       Bm       
  y que más puedo hacer  D
        D        
 E
        E        
tu le diste sentido a mi vida  A
        A        
Contigo se me pierden los minutos Bm
       Bm       
  y se me forma en la garganta un nudo  D
        D        
 E
        E        
me siento como fuera de este mundo  A
        A        
Y me robaste el alma con un beso Bm
       Bm       
  y te metiste en medio de mis sueños  D
        D        
 E
        E        
y me enseñaste a hacer canciones con tus besos C#m
       C#m       
   D
        D        
tus caricias, por que tu solo has podido  E
        E        
terminar mi soledad  A
        A        
Me enamoré otra vez Bm
       Bm       
  como jamás pensé  D
        D        
 E
        E        
tu con tu risa borraste mis heridas  A
        A        
Me enamoré otra vez Bm
       Bm       
  y que más puedo hacer  D
        D        
 E
        E        
tu le diste sentido a mi vida  D
        D        
 E
        E        
por tu forma de mirame me atrapaste de verdad  A
        A        
Me enamoré otra vez Bm
       Bm       
  como jamás pensé  D
        D        
 E
        E        
tu con tu risa borraste mis heridas  A
        A        
Me enamoré otra vez Bm
       Bm       
  y que más puedo hacer  D
        D        
 E
        E        
tu le diste sentido a mi vida E------------------------------------------------------------------- A------------------------------------------------------------------- D------------------------------------------------------------------- g---------------------------------------------------------------- b-----------7-------7-9-7-7------------------------------------------- e-4-6-7-6-4---7-6-4------------------------------------------------------

La B
        B        
ase

Este fichero es trabajo propio de su transcriptor y representa su interpretación personal de la canción. El material contenido en esta página es para exclusivo uso privado, por lo que se prohibe su reproducción o retransmisión, así como su uso para fines comerciales.