Wherever You Go


 Riff 1                     Riff 2                    Riff3

E|--------3--3--1-0------|-------------0-1-0-|-------------0-------------|
B|--------------------3--|-------3--3--------|--------1-3----3-1-0-------|
G|-----0-----------------|-----0-------------|-----2----------------2--0-|
D|---2-------------------|---0---------------|---2-----------------------|
A|-3---------------------|-------------------|-0-------------------------|
E|-----------------------|-3-----------------|---------------------------|

     Riff 1                     Riff 2                   Riff 4

E|--------3--3--1-0------|-------------0-1-0-|-------------0-1-0---------|
B|--------------------3--|-------3--3--------|--------1-3--------3-1-0-1-|
G|-----0-----------------|-----0-------------|-----2---------------------|
D|---2-------------------|---0---------------|---2-----------------------|
A|-3---------------------|-------------------|-0-------------------------|
E|-----------------------|-3-----------------|---------------------------|


     Riff 5 ( Am
       Am       
 ) E|-----------------------| B|---------0--1-------3--| G|-----2-----------------| D|---2-------------------| A|-0---------------------| E|-----------------------|
 C9
       C9       
 G
        G        
Oceans apart day after day A7sus4
      A7sus4      
Fadd9
      Fadd9      
And I slowly go insane C9
       C9       
   G
        G        
I hear your voice on the line A7sus4
      A7sus4      
Fadd9
      Fadd9      
But it doesn't stop the pain Am
       Am       
   F
        F        
If I see you next to never Am
       Am       
   F
        F        
How can we say forever Refrϣo: C
        C        
  ( Riff 1 ) Wherever you go G
        G        
 ( Riff2 ) Whatever you do Am
       Am       
   F
        F        
( Riff 3 ) I will be right here waiting for you C
        C        
  ( Riff 1 ) Whatever it takes G
        G        
 ( Riff2 ) Or how my heart breaks Am
       Am       
   F
        F        
( Riff 4 ) I will be right here waiting for you Riff 5 C9
       C9       
   G
        G        
I took for granted, all the times A7sus4
      A7sus4      
Fadd9
      Fadd9      
That I though would last somehow C9
       C9       
   G
        G        
I hear the laughter, I taste the tears A7sus4
      A7sus4      
Fadd9
      Fadd9      
But I can't get near you now Am
       Am       
   F
        F        
Oh, can't you see it baby Am
       Am       
   F
        F        
You've got me goin' crazy Refrϣo: Dm
       Dm       
  Am
       Am       
   F
        F        
I wonder how we can survive  G
        G        
This romance Dm
       Dm       
  Am
       Am       
   F
        F        
But in the end if I'm with you  G
        G        
I'll take the chance Solo: E|--------3--3--1-0------|-------------0-1-0-|-------------0-------------| B|--------------------3--|-------3--3--------|--------1-3----3-1-0-------| G|-----------------------|-------------------|----------------------2--0-| D|-----------------------|-------------------|---------------------------| A|-----------------------|-------------------|---------------------------| E|-----------------------|-------------------|---------------------------| E|--------3--3--1-0------|-------------0-1-0-|-------------0-1-0---------| B|--------------------3--|-------3--3--------|--------1-3--------3-1-0-1-| G|-----------------------|-------------------|---------------------------| D|-----------------------|-------------------|---------------------------| A|-----------------------|-------------------|---------------------------| E|-----------------------|-------------------|---------------------------| Am
       Am       
   F
        F        
Oh, can't you see it baby Am
       Am       
   F
        F        
You've got me goin' crazy

Bryan A
        A        
dams
(Guitar chords, ukelele, keyboard, tabs, bass, drums and lyrics)

Este fichero es trabajo propio de su transcriptor y representa su interpretación personal de la canción. El material contenido en esta página es para exclusivo uso privado, por lo que se prohibe su reproducción o retransmisión, así como su uso para fines comerciales.