When Youre Gone


(intro)
|----------|------------|-----------|-----------|
|----------|------------|-----------|-----------|
|-5--------|---8--------|--3--------|-----------|
|----------|------------|-----------|--3--------|

(verso 3x)
|-----------|-----------|-----------|-----------|
|---------3-|-5--5---55-|-----------|-----------|
|-5-5----5--|-----------|-3--3---33-|-3--3---33-| 
|-----------|-----------|-----------|-----------|

|-----------|-----------|-----------|-----------|
|-----------|-----------|-----------|-----------|
|-5-5----55-|-1---1--11-|-10--10-10-|-----------|
|-----------|-----------|-----------|-3---3--33-|

(refrϣo 3x) (“baby when you’re gone”)
|---------|---------|----------|---------|
|------35-|-3--3-33-|----------|-5--5-55-|
|-5-5-5---|---------|-3-3-3-53-|---------| 
|---------|---------|----------|---------|

|---------|---------|-------------|-------------|
|---------|---------|-------------|-------------|
|-5-5--55-|-1--1-11-|-10-10-10-10-|-10-10-10-10-|
|---------|---------|-------------|-------------|

(verso)

(refrϣo)

(solo)

(refrϣo)

|---------|---------|---------|
|---------|---------|-3~~~~~~-|
|-5-5--55-|-1--1-11-|---------|
|---------|---------|---------|

Bryan A
        A        
dams
(Guitar chords, ukelele, keyboard, tabs, bass, drums and lyrics)

Este fichero es trabajo propio de su transcriptor y representa su interpretación personal de la canción. El material contenido en esta página es para exclusivo uso privado, por lo que se prohibe su reproducción o retransmisión, así como su uso para fines comerciales.