Cigarrillos, pastillas y alcohol


E5 
uoh, prpblemas de actitud, uoh no quiero yo tenerlos
uoh, problemas de actitud, uoh no quiero soportarlos

RIFF
        F        
 1 C#m
       C#m       
   B
        B        
Sweet lovely lemon, please try to forget me C#m
       C#m       
   B
        B        
Oh why I still love you, oh please let me go C#m
       C#m       
   B
        B        
Sweet lovely lemon, please try to forget me C#m
       C#m       
   B
        B        
Who can I turn to? please let me go  E
        E        
5 uoh, prpblemas de actitud, uoh no quiero yo tenerlos uoh, problemas de actitud, uoh no quiero soportarlos RIFF
        F        
 1 C#m
       C#m       
   B
        B        
Sweet lovely lemon, please try to forget me C#m
       C#m       
   B
        B        
Oh why I still love you, oh please let me go C#m
       C#m       
   B
        B        
Sweet lovely lemon, please try to forget me C#m
       C#m       
   B
        B        
Who can I turn to? please let me go  A
        A        
5  E
        E        
(RIFF
        F        
 2) 'cause I uuooo oooh never listen to anyone  A
        A        
5  E
        E        
(RIFF
        F        
 2) como olvidar? uuooo ooh oh cigarrillos, pastillas y alcochol  E
        E        
5 uoh, prpblemas de actitud, uoh no quiero yo tenerlos uoh, problemas de actitud, uoh no quiero soportarlos RIFF
        F        
 1 C#m
       C#m       
   B
        B        
C#m
       C#m       
   B
        B        
e|--------4------|--------2--------|--------4------|--------2------|  B
        B        
|----5-----5----|----4-----4------|----5-----5----|----4-----4----|  G
        G        
|------6-----6--|------4-----4----|------6-----6--|------4-----4--|  D
        D        
|--6------------|--4--------------|--6------------|--4------------|  A
        A        
|---------------|-----------------|---------------|---------------|  E
        E        
|---------------|-----------------|---------------|---------------| RIFF
        F        
 2  E
        E        
e|--------------------------------|  B
        B        
|--9-9-9-10-10-9-9--9-9-9--7-9---|  G
        G        
|--9-9-9--9-9--9-9--9-9-9--9-9---|  D
        D        
|--9-9-9--9-9--9-9--9-9-9--9-9---|  A
        A        
|--7-7-7--7-7--7-7--7-7-7--7-7---|  E
        E        
|--------------------------------| Boom B
        B        
oom Kid

Este fichero es trabajo propio de su transcriptor y representa su interpretación personal de la canción. El material contenido en esta página es para exclusivo uso privado, por lo que se prohibe su reproducción o retransmisión, así como su uso para fines comerciales.