Dry Country Solo


Solo 1:

E|-------------------------------------------------------------|
B|----------------------------13-------------13b15r10-------13-|
G|------10--------10-10h12b14----12b14r10h12----------12h14----|
D|-10h12--12P10h12-12------------------------------------------|
A|-------------------------------------------------------------|
E|-------------------------------------------------------------|


E|-------------------------------------------------------------|
B|-13b15r10-----13--------10-13-15b17-17p15p13-15-18/13-13p15--|
G|---------12h14--10-12-13-------------------------------------|
D|-------------------------------------------------------------|
A|-------------------------------------------------------------|
E|-------------------------------------------------------------|


E|------------13-15/17/15-13-13h15p13--------------------------|
B|-13h15-13-15-----------------------17-17-13-15-17b19r17-13-15|
G|-------------------------------------------------------------|
D|-------------------------------------------------------------|
A|-------------------------------------------------------------|
E|-------------------------------------------------------------|


E|-13-15/17-17-17-13h15-------|
B|---------------------13h15--|
G|----------------------------|
D|----------------------------|
A|----------------------------|
E|----------------------------|


Solo 2:

E|------------------------------------------------------------|
B|-13p12p10--13p12p10--13p12p10--13p12p10--13p12p10--13p12p10-|
G|------------------------------------------------------------|
D|------------------------------------------------------------|
A|------------------------------------------------------------|
E|------------------------------------------------------------|


E|-------------------------------------------------------------|
B|-13p12p10-13p12p10-13b15r13-10-------------------------------|
G|-------------------------------12b14r10-12-10----------------|
D|---------------------------------------------12- x3
A|-------------------------------------------------------------|
E|-------------------------------------------------------------|


E|-----------------------------15-13-12--------------15-13-12p13|
B|--------------------------13---------15-15p12-15p12-----------|
G|---10-12b14r12p10-10-12b14-12---------------------------------|
D|-12--------------12-------------------------------------------|
A|--------------------------------------------------------------|
E|--------------------------------------------------------------|


E|h13p12---13b15-15-13p12-----12h13--} x3-17p15p13--------13--------|
B|------15---------------12-15-------}------------15-13h15-15p13h15-|
G|------------------------------------------------------------------|
D|------------------------------------------------------------------|
A|------------------------------------------------------------------|
E|------------------------------------------------------------------|


E|17-17-17-16-16-16-15vv-13h15p13-----------------------------------|
B|-------------------------------17-17b10r17-13-15h17---------------|
G|----------------------------------------------------14------------|
D|------------------------------------------------------------------|
A|-------------------------------------------------------12-12-12-12|
E|------------------------------------------------------------------|


E|---------------------------------------------------------15-13-12-|
B|------------------------------------------------------------------|
G|---------------------10--------------------------17/19/21---------|
D|- x3-12---12---12-10--12/14/15/17/19-----------------|
A|--------------------------12--------------------------------------|
E|------------------------------------------------------------------|


E|---------------------------------------------------------------------|
B|-15-13---------------------------------------------------------------|
G|------14-12-14h15p14h12-14h15p14p12h14vvp12-----------10-12b14r12p10-|
D|---------------------------------------------12-12-12----------------|
A|---------------------------------------------------------------------|
E|---------------------------------------------------------------------|


E|----------------------17-15p13-15h17-18p17p15-18p17p15---------|
B|------------11-13b15/0-------------------------------18p17p15-|
G|------10-12----------------------------------------------------|
D|-12p10---------------------------------------------------------|
A|---------------------------------------------------------------|
E|---------------------------------------------------------------|


E|--------------------------------15-17-18-20vv-18p17p151818p1717-|
B|-18p17p15---16p15p13-16p15p13/18--------------------------------|
G|----------------------------------------------------------------|
D|----------------------------------------------------------------|
A|----------------------------------------------------------------|
E|----------------------------------------------------------------|


E|----------------------------------------------------------------------|
B|-18p17p15-18p17p15-15-15vv-10-12-13b15r13b15-13-10-----------------13-|
G|--------------------------------------------------12-10-12-10-12b14-12|
D|----------------------------------------------------------------------|
A|----------------------------------------------------------------------|
E|----------------------------------------------------------------------|



Bon Jovi (Guitar chords, ukelele, keyboard, tabs, bass, drums and lyrics)

Este fichero es trabajo propio de su transcriptor y representa su interpretación personal de la canción. El material contenido en esta página es para exclusivo uso privado, por lo que se prohibe su reproducción o retransmisión, así como su uso para fines comerciales.