Como yo nadie te ha amado (BAJ) (6)


Empieza 'dicen que la vida........' 
 
G|----------------------------------------|-----------| 
D|----------------------------------------|-----------| 
A|--7--6--5--5-4-2-0-----0--7/9-7-7-6-4-2-|2--2-4-2-0-| 
E|7-------------------0-------------------|-----------| 
 
Puente: 
G|--------------------|-------------------|--------------------| 
D|--------------2-----|--------------2----|--------------2-----| 
A|0--0-2-3-4--4---4-2-|0-2--0-2--0-2---4--|0--0-2-3-4--4---4-2-| 
E|--------------------|-------------------|--------------------| 
 
 
 
Coro: 
 
G|-------------------------------------| 
D|------------1-2----------------------| 
A|--6/7----4-4----0-0------------4-2--0| 
E|0-----7-------------4-2-0--0-4-------| 
 
Verso II 
 
G|---------------------------------------| 
D|---------------------------------------| 
A|-7--6--5--5-4-2-0-----0--7/9-7-7-6-4-2-| 
E|-------------------0-------------------| 
 
G|----------------------------------------|-----------| 
D|----------------------------------------|-----------| 
A|--7--6--5--5-4-2-0-----0--7/9-7-7-6-4-2-|2--2-4-2-0-| 
E|7-------------------0-------------------|-----------| 
 
Puente: 
 
G|------------------|-------------------|--------------------| 
D|------------------|--------------2----|--------------2-----| 
A|0--0-2-3-4----4-2-|0-2--0-2--0-2---4--|0--0-2-3-4--4---4-2-| 
E|------------4-----|-------------------|--------------------| 
 
Coro: 
G|--------------------------------------------| 
D|-------------------1-2----------------------| 
A|7--7-6-4-2------4-4----0-0------------4-2--0| 
E|---------------------------4-2-0--0-4-------| 
 
G|-----------------------------------------| 
D|-----------------------------------------| 
A|7--7-6-4---4--2--0--0------------4-2--0--| 
E|---------7------------4-2-0--0-4---------| 
 
Solo: 
 
G|----------------------------------------------------------| 
D|----------------------------------------------------------| 
A|5---0---2--2-4-5---1/2-0-5-5-4-2-0------------------------| 
E|-----------------3-----------------3-3-3-3-3-3-3-3-3-3-3-3| 
 
Puente III 
 
G|------------------|-------------------|--------------------| 
D|------------------|--------------2----|--------------2-----| 
A|0--0-2-3-4----4-2-|0-2--0-2--0-2---4--|0--0-2-3-4--4---4-2-| 
E|------------4-----|-------------------|--------------------| 
 
Coro II 
 
G|-----------------------------------------| 
D|-----------------------------------------| 
A|7--7-6-4---4--2--0--0------------4-2--0--| 
E|---------7------------4-2-0--0-4---------| 
 
G|----------------| 
D|-------2-4-2----| 
A|0--0-4-------4--| 
E|---------------0| 
 
G|-----------------------------------------| 
D|-----------------------------------------| 
A|7--7-6-4---4--2--0--0------------4-2--0--| 
E|---------7------------4-2-0--0-4---------| 
 
G|-----------------------------------------| 
D|-----------------------------------------| 
A|7--7-6-4---4--2--0--0------------4-2--0--| 
E|---------7------------4-2-0--0-4---------| 
 
Fin: 
 
G|--| 
D|--| 
A|7-| 
E|--|

 B
        B        
on Jovi

Este fichero es trabajo propio de su transcriptor y representa su interpretación personal de la canción. El material contenido en esta página es para exclusivo uso privado, por lo que se prohibe su reproducción o retransmisión, así como su uso para fines comerciales.