220 V


Intro

E|----------------------------------------------------------------------------------|
B|----------------------------------------------------------------------------------|
G|--------------------------9-9-9-9-9-9-9-9-9-7-------------------------------------|
D|----------------------------------------------9-8-7----7--------------------------|
A|----------------------------------------------------10----7-----------------------|
E|---0------------------------------------------------------------------------------|


E|----------------------------------------------------------------------------------|
B|----------------------------------------------------------------------------------|
G|----------------------------------------------------------------------------------|
D|----------------------------------------------------------------------------------|
A|----------------------------------------------------------------------------------|
E|-0-2-0-3-0---0-2-0-3-0---5-3-0----------------------------------------------------|


E|----------------------------------------------------------------------------------|
B|----------------------------------------------------------------------------------|
G|----------------------------------------------------------------------------------|
D|----------------------------------------------------------------------------------|
A|----------------------------------------------------------------------------------|
E|-0---------------------0-2-0-3-0---0-2-0-3-0---5-3-0------------------------------|


E|----------------------------------------------------------------------------------|
B|----------------------------------------------------------------------------------|
G|----------------------------------------------------------------------------------|
D|----------------------------------------------------------------------------------|
A|----------------------------------------------------------------------------------|
E|-0---------------------0-2-0-3-0---0-2-0-3-0---5-3-0------------------------------|


E|----------------------------------------------------------------------------------|
B|----------------------------------------------------------------------------------|
G|----------------------------------------------------------------------------------|
D|----------------------------------------------------------------------------------|
A|--2-2-2-2-2-2-2-2-3-3-3-3-3-3-3-3-2-2-2-2-2-2-2-2-3--2--3--5----------------------|
E|----------------------------------------------------------------------------------|


E|----------------------------------------------------------------------------------|
B|----------------------------------------------------------------------------------|
G|----------------------------------------------------------------------------------|
D|----------------------------------------------------------------------------------|
A|----------------------------------------------------------------------------------|
E|-0-2-0-3-0---0-2-0-3-0---5-3-0----------------------------------------------------|


E|-----------------------------------------------------------------------------------|
B|-----------------------------------------------------------------------------------|
G|-------------------------------------------------0h2--------------0h2--------------|
D|------------0h2---------------0h2------------2-2-------------2-2-------------------|
A|--------2-2---------------2-2---------0---0-----------0---0------------------------|
E|-0----0-----------0----0-----------------------------------------------------------|


E|----------------------------------------------------------------------------------|
B|----------------------------------------------------------------------------------|
G|------------------------------2h4-------------------------------------------------|
D|------------0h2----------4-4------------------------------------------------------|
A|--------2-2-------2--2--------------3-2-3-5---------------------------------------|
E|-0----0---------------------------------------------------------------------------|




Bon Jovi (Guitar chords, ukelele, keyboard, tabs, bass, drums and lyrics)

Este fichero es trabajo propio de su transcriptor y representa su interpretación personal de la canción. El material contenido en esta página es para exclusivo uso privado, por lo que se prohibe su reproducción o retransmisión, así como su uso para fines comerciales.