No Woman No Cry Acoustic


        G
        G        
x4  D
        D        
e--------------------------------------------------------------|  B
        B        
------0---------0---------0---------0---------0---------3-----|  G
        G        
----0---0-----0---0-----0---0-----0---0-----0---0-----2---2---|  D
        D        
----------------------------------------------------0---------|  A
        A        
--------------------------------------------------------------|  E
        E        
--3---------3---------3---------3---------3-------------------|
 E
        E        
M  C
        C        
 G
        G        
 C
        C        
 D
        D        
 G
        G        
 D
        D        
e--------------------------------------------------------------|  B
        B        
------0---------1---------0-------1-----3-------0---------3---|  G
        G        
----0---0-----0---0-----0---0-----------------0---0-----2---2-|  D
        D        
--------------------------------------0---------------0-------|  A
        A        
------------3-------------------3-----------------------------|  E
        E        
--0-------------------3---------------------3-----------------|
 G
        G        
 D
        D        
 E
        E        
M  C
        C        
e-------------------------------------------| This is the acoustic version  B
        B        
------0---------3---------0---------1------| of "No woman no cry",what I  G
        G        
----0---0-----2---2-----0---0-----0---0----| wrote was the intro and some  D
        D        
------------0------------------------------| of the verse...to play this  A
        A        
--------------------------------3----------| song you have to play with  E
        E        
--3-------------------0--------------------| your fingers but you can also "I remember when we used to sit..." play these chords normally.


Bob Marley

Este fichero es trabajo propio de su transcriptor y representa su interpretación personal de la canción. El material contenido en esta página es para exclusivo uso privado, por lo que se prohibe su reproducción o retransmisión, así como su uso para fines comerciales.