I Dont Want To Wait In Vain Solo


Tabbed by:chicagoblues321
Email:*

my guitar's tuned down half a step but it still should be right for standard tuning

about(1:49)

e|------------------------------------------------------9--10--12--9p109----|
B|---------------------------10---12b14(hold bend)--12----------------------|
G|----------------9--9h11---------------------------------------------------|
D|-------7--9/11------------------------------------------------------------|
A|--7/9---------------------------------------------------------------------|
E|--------------------------------------------------------------------------|


e|-----9--------------------------------------------14--12/14---14--12------|
B|-12----10/12---10--------10br12---10p12p10---10~--------------------------|
G|-------------------9~-----------------------------------------------------|
D|--------------------------------------------------------------------------|
A|--------------------------------------------------------------------------|
E|--------------------------------------------------------------------------|


e|----------------12--------------------------------------------------------|
B|---14--13--14-------14--13--12/14--12~-1210/12--10~--------------10t12---|
G|-----------------------------------------------------------9t11-----------|
D|------------------------------------------------------9t11----------------|
A|--------------------------------------------------------------------------|
E|--------------------------------------------------------------------------|


e|-12t14---------15b17---15b17---15b17---17---14---14-14--14--14---14-14-14-|
B|--------------------------------------------------------------------------|
G|--------------------------------------------------------------------------|
D|--------------------------------------------------------------------------|
A|--------------------------------------------------------------------------|
E|--------------------------------------------------------------------------|


| /  slide up
|   slide down
| h  hammer-on
| p  pull-off
| ~  vibrato
| +  harmonic
| x  Mute note
===============================================================================

Bob Marley

Este fichero es trabajo propio de su transcriptor y representa su interpretación personal de la canción. El material contenido en esta página es para exclusivo uso privado, por lo que se prohibe su reproducción o retransmisión, así como su uso para fines comerciales.