Easy Skankin


Intro/Chorus                                                                
--------------------------------|----------------------------------|
--------------------------------|----------------------------------|
-------5-5-8---------5-5-8-8----|------------5-------------5-5-----|
-6-6-6---------6-6-6------------|--3-3-3-6-6-----3-3-3-6-6---------|       

Verse
-----------------------------|-------------------------------------|
-----------------------------|--------5-5-8--------5-5-------------|
------5-5-8--------5-5-8-8---|--6-6-6--------6-6-6-----------------|
6-6-6--------6-6-6-----------|--------------------------6-6--------| 

Bridge                                                    X4
-------------------------------------------------------------------|
---------8-8-------------------------------------------------------|
-6-6-6-6-----6-6-5-5-5-5-----5-5-----------------------------------|
-------------------------5-5---------------------------------------|

Bob Marley

Este fichero es trabajo propio de su transcriptor y representa su interpretación personal de la canción. El material contenido en esta página es para exclusivo uso privado, por lo que se prohibe su reproducción o retransmisión, así como su uso para fines comerciales.