Coming In From The Cold


    A
        A        
lbum - Uprising Tabbed by - mattydread  E
        E        
-mail - * riff 1;  G
        G        
|------------------------------------------------------|  D
        D        
|-------------------7-5-----------------------7-5------|  A
        A        
|---3-3--3-3--3-3---------3----3-3--3-3--3-3--------3--|  E
        E        
|------------------------------------------------------| riff 2;  G
        G        
|-------------------7-5---------------------------------|  D
        D        
|---3-3--3-3--3-3---------3----3-3--3-3--3-3----5-7-5---|  A
        A        
|-------------------------------------------------------|  E
        E        
|-------------------------------------------------------| riff 3;  G
        G        
|-------------------------------------------------------|  D
        D        
|-------------------------------------------------------|  A
        A        
|-------------------5-3--------------------------5-7-5--|  E
        E        
|---1-1--1-1--1-1---------1----1-1--1-1--1-1------------| riff 4;  G
        G        
|-------------------------------------------------------|  D
        D        
|-------------------7-5-------3-3------5-5--------------|  A
        A        
|---3-3--3-3--3-3---------3---------3-------5---3-3-3---|  E
        E        
|-------------------------------------------------------| riff 5;  G
        G        
|-------------------------------------------------------|  D
        D        
|---3-------3----------3-3------5-5---------------------|  A
        A        
|------0-0-----0-0----------3---------5---3-3-3---------|  E
        E        
|-------------------------------------------------------| riff 6;  G
        G        
|--------------------------------------------------------|  D
        D        
|--------------------------------------------------------|  A
        A        
|------------------------5--------3----------------------|  E
        E        
|---1-1--1----1-1--1-----------------------5-------------| riff 7;  G
        G        
|---------------------------------------------------------|  D
        D        
|-------------------7-5-----------------------7-5---------|  A
        A        
|---5-5--5-5--5-5--------5----5-5--5-5--5-5--------5------|  E
        E        
|---------------------------------------------------------| riff order; 1,2,1,3,1,3,4,5,6,7,1,3,1,3,1,3,5,6,7,1,3,1,3......to fade

Bob Marley

Este fichero es trabajo propio de su transcriptor y representa su interpretación personal de la canción. El material contenido en esta página es para exclusivo uso privado, por lo que se prohibe su reproducción o retransmisión, así como su uso para fines comerciales.