Born In Time


Intro (guitar part):       (piano part, main melody):
    :   .   .   .            :   .   .   .     :   .   .   .

|-------------------|      |-7-5-----------5-|-7---7-5---------|
|-3h5-3-------3-5---|      |-----8-5---5-8---|---------8---8---|
|-------4-2---------|x2    |---------7-------|-----------------|
|-----------5-------|      |-----------------|-----------------|
|-------------------|      |-----------------|-----------------|
|-------------------|      |-----------------|-----------------|


Or taken together:

  :   .   .   .     :   .   .   .

|-7-5-3-0---0-3-5-|-7---7-5-3---3---|
|-5-3-0---3-3-5---|-5---------3-5---|
|-------2-0-------|---7-4-2-0-------|
|-----------------|-----------------|
|-----------------|-----------------|
|-----------------|-----------------|


       G
        G        
In the lonely night Em
       Em       
  In the blinking stardust of a pale blue light Am7
       Am7       
  You're comin' thru to me in black and white  C
        C        
 Cm
       Cm       
 G
        G        
When we were made of dreams. You're blowing down the shaky street, You're hearing my heart beat In the record breaking heat Where we were born in time.  G
        G        
 D
        D        
Not one more night, not one more kiss,  C
        C        
G/B
       G/B       
  Not this time baby, no more of this.  G
        G        
 D
        D        
Takes too much skill, takes too much will.  G
        G        
It's too revealing.  G
        G        
 D
        D        
You came, you saw, just like the law  C
        C        
G/B
       G/B       
  You married young, just like your ma,  G
        G        
Am
       Am       
  You tried and tried, you made me slide  D
        D        
You left me reelin' G/B
       G/B       
   C
        C        
with this feelin'. On the rising curve Where the ways of nature will test every nerve, You won't get anything you don't deserve Where we were born in time. You pressed me once, you pressed me twice, You hang the flame, you'll pay the price. Oh babe, that fire Is still smokin'. You were snow, you were rain You were striped, you were plain, Oh babe, truer words Have not been spoken or broken. In the hills of mystery, In the foggy web of destiny, You can have what's left of me, Where we were born in time.

Bob D
        D        
ylan
(Guitar chords, ukelele, keyboard, tabs, bass, drums and lyrics)

Este fichero es trabajo propio de su transcriptor y representa su interpretación personal de la canción. El material contenido en esta página es para exclusivo uso privado, por lo que se prohibe su reproducción o retransmisión, así como su uso para fines comerciales.