Fuck, Fuck


Intro1

e|--------------------|           | 
b|--------------------|           |
g|--------------------|   2X      |
d|--------6-----6-----|           |
a|----7-----7-----7---|           | 
e|--5---5-----5-------|           | 
                                 |
e|--------------------|           |
b|--------------------|           |
g|--------------------|   2X      |
d|--------6-----6-----|           |
a|----7-----7-----7---|           |
e|--7---7-----7-------|           |----------2X 
                                 |
e|--------------------|           |
b|--------------------|           |
g|--------------------|   2X      |
d|--------6-----6-----|           |
a|----7-----7-----7---|           |  
e|--9---9-----9-------|           |
                                 |
e|--------------------|           |
b|--------------------|           |
g|--------------------|   2X      |
d|--------6-----6-----|           | 
a|----9-----9-----9---|           | 
e|--7---7-----7-------|           |


Intro2

e|-------------------------------------------------------|
b|-------------------------------------------------------|
g|-------------------------------------------------------|   2X
d|-------------------------------------------------------|
a|---777-7-77-7-7-777-7-77-7-7-777-7-77-7-7-999-9-99-9-9-|
e|---555-5-55-5-5-777-7-77-7-7-999-9-99-9-9-777-7-77-7-7-|



Verse = Intro1, C
        C        
om distorçϣo Refrϣo: A
        A        
C#
       C#       
B
        B        
Solo: A
        A        
B
        B        
C#
       C#       
A
        A        
e|-----------------------------------------------------------| b|-----------------------------------------------------------| g|-----------------------------------------------------------| d|--------6-7--------9-7-----------7--------6~7~6------------| a|-----7----------7----------9-11--------9--------7----------| e|--5----------7----------9-----------7----------------------| e|-----------------------------------------------------------| b|-----------------------------------------------------------| g|-----------------------------------------------------------| d|--------6-7--------9-7-----------7--------6~7~6------------| a|-----7----------7----------9-11--------9--------7--5-------| e|--5----------7----------9-----------7----------------------|

Blink 182 (Guitar chords, ukelele, keyboard, tabs, bass, drums and lyrics)

Este fichero es trabajo propio de su transcriptor y representa su interpretación personal de la canción. El material contenido en esta página es para exclusivo uso privado, por lo que se prohibe su reproducción o retransmisión, así como su uso para fines comerciales.