Feeling This


Intro:

E|----------------------------------------------------|
B|----------------------------------------------------|
G|--13/9-9-9-9--9-9--9-13--9-11/9--9-9--9-9--9-13--9--|
D|--x-x-x-x--x-x--x--x--x--x-x--x-x--x-x--x--x--x-----|
A|--11/7-7-7-7--7-7--7/11--7--9/7--7-7--7-7--7/11--7--|
E|-------------0--------0--------------0--------0-----|


Verso:

E|--------------------------|
B|--------------------------|
G|--9-9-9-9--9-9--9-13--9---|
D|--x-x-x-x--x-x--x--x--x---|
A|--7-7-7-7--7-7--7/11--7---|
E|-------------0--------0---|


Refrϣo:

E|---------------------|
B|---------------------|
G|---------------------|
D|--2-----------2------|
A|--2--Rest-----2-Rest-|
E|--0-----------0------|


Riff:

E|-------------------------------------------------------|
B|-------------------------------------------------------|
G|--9-9--9--9--9-11-11-11-11--13-13--13-13-14-14--14-14--|
D|--x-x--x--x--x--x--x--x--x---x--x---x--x--x--x---x--x--|
A|--7-7--7--7--7/-9--9--9--9/-11-11--11-11/12-12--12-12--|
E|-------------------------------------------------------|


(Guitarra 1)

E|----------------------------------|
B|----------------------------------|
G|----------------------------------|
D|------6---6-----------------------|
A|--7-7---7---7-7-7--7-7-7-7-9-9-9--|
E|----------------------------------|

 PM . . . . . . . .  . . . . . . .

(Guitarra 2)

E|-------------------------------------------------------------------|
B|-------------------------------------------------------------------|
G|-------------------------------------------------------------------|
D|--9-9-9-9-9-9-9-9-----------------6-6-6-6-6-6-6-6------------------|
A|--7-7-7-7-7-7-7-7-9-9-9-9-9-9-9-9-4-4-4-4-4-4-4-4-7-7-7-7-7-7-7-7--|
E|------------------7-7-7-7-7-7-7-7-----------------5-5-5-5-5-5-5-5--|


E|-------------------------------------------------------------------|
B|-------------------------------------------------------------------|
G|--9-9-9-9-9-9-9-9-----------------6-6-6-6-6-6-6-6------------------|
D|--9-9-9-9-9-9-9-9-9-9-9-9-9-9-9-9-6-6-6-6-6-6-6-6-7-7-7-7-7-7-7-7--|
A|--7-7-7-7-7-7-7-7-9-9-9-9-9-9-9-9-4-4-4-4-4-4-4-4-7-7-7-7-7-7-7-7--|
E|------------------7-7-7-7-7-7-7-7-----------------5-5-5-5-5-5-5-5--|


Music:
(GET RE
       RE       
ADY F
        F        
OR A
        A        
CTION!) I got no regret right now (I'm feeling this!) The air is so cold and low (I'm feeling this!) Let me go in her room (I'm feeling this!) I wanna take off her clothers (I'm feeling this!) Show me the way to bed (I'm feeling this!) Show me the way you move (I'm feeling this!) How can you be such a blur? (I'm feeling this!) I love all the things you do! (I'm feeling this!) Fate fell short this time your smile fades in the summer place your hand in mine I'll leave when I wanna Where do we go from here? Turn all the lights down now Smile from ear to ear (I'm feeling this!) My breathing has got too loud (I'm feeling this!) Show me the bedroom floor (I'm feeling this!) Show me the bathroom mirror (I'm feeling this!) We're taking this way to slow (I'm feeling this!) Take me away from here (I'm feeling this!) This place was never the same again after you came and went how can you say you meant anything different to anyone standing alone on the street with a cigarette on the first night we met Look to the past and remember her smile and maybe tonight I can breathe for a while I'm not in the seat I think i'm falling asleep but then its all I could need cuz i'll always be dreaming of you Fate fell short this time your smile fades in the summer place your hand in mine I'll leave when I wanna

Blink 182 (Guitar chords, ukelele, keyboard, tabs, bass, drums and lyrics)

Este fichero es trabajo propio de su transcriptor y representa su interpretación personal de la canción. El material contenido en esta página es para exclusivo uso privado, por lo que se prohibe su reproducción o retransmisión, así como su uso para fines comerciales.