Dogs Eating Dogs


Guitar 1

E|---------------------------------------------------------------|
B|---------------------------------------------------------------|
G|--5----4----5----7----5----4----5-5-5-5-5-5-5-5----------------|
D|--x----x----x----x----x----x----5-5-5-5-5-5-5-5-5-5-5-5-5-5-5-5|
A|--3----2----2----5----3----2----3-3-3-3-3-3-3-3-5-5-5-5-5-5-5-5|
E|------------------------------------------------3-3-3-3-3-3-3-3|

Guitar 2                                                             X4

E|---------------------------------------------------------------|
B|---------------------------------------------------------------|
G|--------------------------------5-5-5-5-5-5-5-5----------------|
D|7-7-7-7-7-7-7-7-7-7-7-7-7-7-7-7-5-5-5-5-5-5-5-5-5-5-5-5-5-5-5-5|
A|7-7-7-7-7-7-7-7-7-7-7-7-7-7-7-7-3-3-3-3-3-3-3-3-5-5-5-5-5-5-5-5|
E|5-5-5-5-5-5-5-5-5-5-5-5-5-5-5-5-----------------3-3-3-3-3-3-3-3|



 Verse


E|---------------------------------------------------------------|
B|---------------------------------------------------------------|
G|--------------------------------5-5-5-5-5-5-5-5----------------|
D|7~------------------------------5-5-5-5-5-5-5-5-5-5-5-5-5-5-5-5|
A|7~------------------------------3-3-3-3-3-3-3-3-5-5-5-5-5-5-5-5|
E|5~----------------------------------------------3-3-3-3-3-3-3-3|


E|---------------------------------------------------------------|
B|---------------------------------------------------------------|
G|--------------------------------5-5-5-5-5-5-5-5----------------|
D|7-7-7-7-7-7-7-7-7-7-7-7-7-7-7-7-5-5-5-5-5-5-5-5-5-5-5-5-5-5-5-5|X3
A|7-7-7-7-7-7-7-7-7-7-7-7-7-7-7-7-3-3-3-3-3-3-3-3-5-5-5-5-5-5-5-5|
E|5-5-5-5-5-5-5-5-5-5-5-5-5-5-5-5-----------------3-3-3-3-3-3-3-3|


E|---------------------------------------------------------------|
B|---------------------------------------------------------------|
G|---------------------------------------------------------------|
D|--------------------------------5-5-5-5-5-5-5-5----------------|X2
A|7-7-7-7-7-7-7-7-7-7-7-7-7-7-7-7-3-3-3-3-3-3-3-3-5-5-5-5-5-5-5-5|
E|5-5-5-5-5-5-5-5-5-5-5-5-5-5-5-5-----------------3-3-3-3-3-3-3-3|

  x x x x x x x x x x x x x x x x x x x x x x x x x x x x x x x x

 C
        C        
horus E|----------------------------------------------------------------------------| B|----------------------------------------------------------------------------| G|5---------------------------------------------------------------------------| D|5-----3------7-7-7-7-7-7-7-7-5-5-5-5-5-5-5-5-3-3-3-3-3-3-3-3-3-3-3-3-3-3-3-3|X2 A|3-----3------7-7-7-7-7-7-7-7-5-5-5-5-5-5-5-5-3-3-3-3-3-3-3-3-3-3-3-3-3-3-3-3| E|------1------5-5-5-5-5-5-5-5-3-3-3-3-3-3-3-3-1-1-1-1-1-1-1-1-1-1-1-1-1-1-1-1| E|--------------------------------------------| B|--------------------------------------------| G|5-4-5-7-5-4--5-5-5-5-5-5-5-5----------------| D|x-x-x-x-x-x--5-5-5-5-5-5-5-5-5-5-5-5-5-5-5-5|X2 A|3-2-2-5-3-2--3-3-3-3-3-3-3-3-5-5-5-5-5-5-5-5| E|-----------------------------3-3-3-3-3-3-3-3| E|---------------------------------------------------------------| B|---------------------------------------------------------------| G|--------------------------------5-5-5-5-5-5-5-5----------------| D|7-7-7-7-7-7-7-7-7-7-7-7-7-7-7-7-5-5-5-5-5-5-5-5-5-5-5-5-5-5-5-5|X2 A|7-7-7-7-7-7-7-7-7-7-7-7-7-7-7-7-3-3-3-3-3-3-3-3-5-5-5-5-5-5-5-5| E|5-5-5-5-5-5-5-5-5-5-5-5-5-5-5-5-----------------3-3-3-3-3-3-3-3| E|---------------------------------------------------------------| B|---------------------------------------------------------------| G|---------------------------------------------------------------| D|--------------------------------5-5-5-5-5-5-5-5----------------|X2 A|7-7-7-7-7-7-7-7-7-7-7-7-7-7-7-7-3-3-3-3-3-3-3-3-5-5-5-5-5-5-5-5| E|5-5-5-5-5-5-5-5-5-5-5-5-5-5-5-5-----------------3-3-3-3-3-3-3-3| x x x x x x x x x x x x x x x x x x x x x x x x x x x x x x x x Chorus E|----------------------------------------------------------------------------| B|----------------------------------------------------------------------------| G|5---------------------------------------------------------------------------| D|5-----3------7-7-7-7-7-7-7-7-5-5-5-5-5-5-5-5-3-3-3-3-3-3-3-3-3-3-3-3-3-3-3-3|X2 A|3-----3------7-7-7-7-7-7-7-7-5-5-5-5-5-5-5-5-3-3-3-3-3-3-3-3-3-3-3-3-3-3-3-3| E|------1------5-5-5-5-5-5-5-5-3-3-3-3-3-3-3-3-1-1-1-1-1-1-1-1-1-1-1-1-1-1-1-1|  B
        B        
ridge  G
        G        
uitar comes in at 2:13 E|----------------------------------------------------------------------| B|----------------------------------------------------------------------| G|-------------------------------4--------4------4------4-------4------4| D|-----------------------------4---4----4---4--4------4---4---4---4--4--| A|2---3-----3--2--3----------2----------------------2-------------------| E|------------------------------------3---------------------3-----------| E|---------------------| B|---------------------| G|----4--------4-----4-| D|--4---4----4---4--4--| A|2--------------------| E|---------3-----------| E|---------------------------------------------------------------| B|---------------------------------------------------------------| G|---------------------------------------------------------------| D|--------------------------------5-5-5-5-5-5-5-5----------------|X2 A|7-7-7-7-7-7-7-7-7-7-7-7-7-7-7-7-3-3-3-3-3-3-3-3-5-5-5-5-5-5-5-5| E|5-5-5-5-5-5-5-5-5-5-5-5-5-5-5-5-----------------3-3-3-3-3-3-3-3| x x x x x x x x x x x x x x x x x x x x x x x x x x x x x x x x Chorus E|----------------------------------------------------------------------------| B|----------------------------------------------------------------------------| G|5---------------------------------------------------------------------------| D|5-----3------7-7-7-7-7-7-7-7-5-5-5-5-5-5-5-5-3-3-3-3-3-3-3-3-3-3-3-3-3-3-3-3|X2 A|3-----3------7-7-7-7-7-7-7-7-5-5-5-5-5-5-5-5-3-3-3-3-3-3-3-3-3-3-3-3-3-3-3-3| E|------1------5-5-5-5-5-5-5-5-3-3-3-3-3-3-3-3-1-1-1-1-1-1-1-1-1-1-1-1-1-1-1-1| Outro Guitar 1 E|---------------------------------------------------------------| B|---------------------------------------------------------------| G|--5----4----5----7----5----4----5-5-5-5-5-5-5-5----------------| D|--x----x----x----x----x----x----5-5-5-5-5-5-5-5-5-5-5-5-5-5-5-5| A|--3----2----2----5----3----2----3-3-3-3-3-3-3-3-5-5-5-5-5-5-5-5| E|------------------------------------------------3-3-3-3-3-3-3-3| Guitar 2 E|---------------------------------------------------------------| B|---------------------------------------------------------------| G|--------------------------------5-5-5-5-5-5-5-5----------------| D|7-7-7-7-7-7-7-7-7-7-7-7-7-7-7-7-5-5-5-5-5-5-5-5-5-5-5-5-5-5-5-5| A|7-7-7-7-7-7-7-7-7-7-7-7-7-7-7-7-3-3-3-3-3-3-3-3-5-5-5-5-5-5-5-5| E|5-5-5-5-5-5-5-5-5-5-5-5-5-5-5-5-----------------3-3-3-3-3-3-3-3| Guitar 1 E|--------------------------------------------------| B|--------------------------------------------------| G|--5----4----5----7----5----4----5-5-5-5-5-5-5-5---| D|--x----x----x----x----x----x----5-5-5-5-5-5-5-5-5-| A|--3----2----2----5----3----2----3-3-3-3-3-3-3-3-5-| E|------------------------------------------------3-| Guitar 2 E|--------------------------------------------------| B|--------------------------------------------------| G|--------------------------------5-5-5-5-5-5-5-5---| D|7-7-7-7-7-7-7-7-7-7-7-7-7-7-7-7-5-5-5-5-5-5-5-5-5-|X3 A|7-7-7-7-7-7-7-7-7-7-7-7-7-7-7-7-3-3-3-3-3-3-3-3-5-| E|5-5-5-5-5-5-5-5-5-5-5-5-5-5-5-5-----------------3-|

Blink 182 (Guitar chords, ukelele, keyboard, tabs, bass, drums and lyrics)

Este fichero es trabajo propio de su transcriptor y representa su interpretación personal de la canción. El material contenido en esta página es para exclusivo uso privado, por lo que se prohibe su reproducción o retransmisión, así como su uso para fines comerciales.