Depends


Verso :

|------------------------------------------|------------------------------------------|
|------------------------------------------|------------------------------------------|
|------------------------------------------|------------------------------------------|
|-4-4-4-4----------------------------------|-4-4-4-4----------------------------------|
|--5-5-5-5-7-7-7-7-7-7-5-5-5-5-5-5-5-5-5-5-|--5-5-5-5-7-7-7-7-7-7-5-5-5-5-5-5-7-7-7-7-|
|----------5-5-5-5-5-5-3-3-3-3-3-3-3-3-3-3-|----------5-5-5-5-5-5-3-3-3-3-3-3-5-5-5-5-|

PM . . . .   . . .       . . .   .   .        . . . .   . . .
Well I guess it all depends
undergarments...

|-------------------------------------|
|-------------------------------------|
|-------------------------------------|
|-7-7-7-------------7-7-7-------------|
|-5-5-5-5-5-5-7-7-7-5-5-5-7-7-7-5-5-5-|
|-------3-3-3-5-5-5-------5-5-5-3-3-3-|


Step back in the light...

|--------------------------------------------------|--------------------------
|--------------------------------------------------|--------------------------
|--------------------------------------------------|--------------------------
|-------------7-7-7-7-7-7--------------------------|--------------7-7-7-7-7-7-
|-7-7-7-7-7-7-5-5-5-5-5-5-7-7-7-7-7-7--5-5-5-5-5-5-|-7-7-7-7-7-7--5-5-5-5-5-5-
|-5-5-5-5-5-5-------------5-5-5-5-5-5--3-3-3-3-3-3-|-5-5-5-5-5-5--------------


---------------------------------------------------|
---------------------------------------------------|
---------------------------------------------------|
---------------------------------------------------|
-5-5-5-5-5-5-5-5-5-5-5-5-5-5-5-5-7-7-7-7-7-7-7-7-7-|
-3-3-3-3-3-3-3-3-3-3-3-3-3-3-3-3-5-5-5-5-5-5-5-5-5-|

PM . . . . . . . . . . . . . . . . . . . . . . 
termina em :
|---|
|---|
|---|
|-7~|
|-5~|
|---|


|--------------15-|
|----15-----------|
|-------14--12----|
|-12--------------|
|-----------------|
|-----------------|


Blink 182 (Guitar chords, ukelele, keyboard, tabs, bass, drums and lyrics)

Este fichero es trabajo propio de su transcriptor y representa su interpretación personal de la canción. El material contenido en esta página es para exclusivo uso privado, por lo que se prohibe su reproducción o retransmisión, así como su uso para fines comerciales.