Another Girl Another Planet


Intro:

Guitarra 1:

|PM----------------------------------------------------------------------|
|-----------------|-----------------|----------------|-------------------|
|-----------------|-----------------|----------------|-------------------|
|-----------------|-----------------|----------------|-------------------|
|-0-0-0-0-0-0-0-0-|-0-7-0-7-0-0-7-0-|-9-9-9-9-9-0--5-|-5-5-5-5-5-5-5-5---|
|-5-5-5-5-5-5-5-5-|-5-5-5-5-5-5-5-5-|-7-7-7-7-7-5--3-|-3-3-3-3-3-3-3-3---|
|-----------------|-----------------|----------------|-------------------|


Guitarra 2:

|-----------------|-----------------|----------------|-----------------|
|-----------------|-----------------|----------------|-----------------|
|-----------------|-----------------|----------------|-----------------|
|-----------------|-----------------|----------------|-----------------|
|-----------------|-----------------|----------------|-----------------|
|-----------------|-----------------|----------------|-----------------|


|---------------------------------------------------------------------------------|
|-----------------|-------------------|------------------|------------------------|
|-----------------|-------------------|------------------|------------------------|
|-----------------|-------------------|------------------|------------------------|
|-0-0-0-0-0-0-0-0-|--0--7-0-7-0-0-7-0-|--9--9-9-9-9-0--5-|--5--5-5-5-5-5-5-5------|
|-5-5-5-5-5-5-5-5-|--5--5-5-5-5-5-5-5-|--7--7-7-7-7-5--3-|--3--3-3-3-3-3-3-3------|
|-----------------|-------------------|------------------|------------------------|


                     >

|-----------------|-------------------|------------------|----------------------|
|-----------------|-------------------|------------------|----------------------|
|-----------------|-------------------|------------------|----------------------|
|-x-x-5-----------|-(5)---------------|-(5)--------------|-(5)------------------|
|-x-x-5-----------|-(5)---------------|-(5)--------------|-(5)------------------|
|-x-x-3-----------|-(3)---------------|-(3)--------------|-(3)------------------|



Guitarra 2:

|-------------------------|-------------------------|-------------------------|-------------------------|
|-------------------------|-------------------------|-------------------------|-------------------------|
|-16-16-16-16-16-16-16-16-|-14-14-14-14-14-14-14-14-|-16-16-16-16-16-16-16-16-|-17-17-17-17-17-17-17-17-|
|--x--x--x--x--x--x--x--x-|--x--x--x--x--x--x--x--x-|--x--x--x--x--x--x--x--x-|--x--x--x--x--x--x--x--x-|
|-14-14-14-14-14-14-14-14-|-12-12-12-12-12-12-12-12-|-14-14-14-14-14-14-14-14-|-15-15-15-15-15-15-15-15-|
|-------------------------|-------------------------|-------------------------|-------------------------|


Guitarra 1:

|PM------------------------------------------------------------------------------------------------------|
|-------------------------|-------------------------|-------------------------|--------------------------|
|-------------------------|-------------------------|-------------------------|--------------------------|
|-------------------------|-------------------------|-------------------------|--------------------------|
|--0--0--0--0--0--0--0--0-|--0--7--0--7--0--0--7--0-|--9--9--9--9--9--0-----5-|--5--5--5--5--5--5--5--5--|
|--5--5--5--5--5--5--5--5-|--5--5--5--5--5--5--5--5-|--7--7--7--7--7--5-----3-|--3--3--3--3--3--3--3--3--|
|-------------------------|-------------------------|-------------------------|--------------------------|


|-------------------------|-------------------------|-------------------------|-------------------------|
|-------------------------|-------------------------|-------------------------|-------------------------|
|-16-16-16-16-16-16-16-16-|-14-14-14-14-14-14-14-14-|-12-12-12-12-12-12-12-12-|-12-12-12-12-12-12-------|
|--x--x--x--x--x--x--x--x-|--x--x--x--x--x--x--x--x-|--x--x--x--x--x--x--x--x-|--x--x--x--x--x--x-------|
|-14-14-14-14-14-14-14-14-|-12-12-12-12-12-12-12-12-|-10-10-10-10-10-10-10-10-|-10-10-10-10-10-10-------|
|-------------------------|-------------------------|-------------------------|-------------------12---|


|--------------------------------------------------------------------------------------------------------|
|-------------------------|-------------------------|-------------------------|--------------------------|
|-------------------------|-------------------------|-------------------------|--------------------------|
|-------------------------|-------------------------|-------------------------|--------------------------|
|--0--0--0--0--0--0--0--0-|--0--7--0--7--0--0--7--0-|--9--9--9--9--9--0-----5-|--5--5--5--5--5--5--5--5--|
|--5--5--5--5--5--5--5--5-|--5--5--5--5--5--5--5--5-|--7--7--7--7--7--5-----3-|--3--3--3--3--3--3--3--3--|
|-------------------------|-------------------------|-------------------------|--------------------------|


|-----------------|-----------------------|-------------------|---------------------|
|-----------------|-----------------------|-------------------|---------------------|
|--------------7--|-(7)--7--7-----7---7-9-|-(9)-9-9-9---7---5-|-5--5---5--5---5-4-2-|
|-5--5--5-5-5--7--|-(7)--7--7-----7---7-9-|-(9)-9-9-9---7---5-|-5--5---5--5---5-4-2-|
|-5--5--5-5-5--5--|-(5)--5--5-----5---5-7-|-(7)-7-7-7---5---3-|-3--3---3--3---3-2-0-|
|-3--3--3-3-3-----|-----------------------|-------------------|---------------------|


Guitarra 2:

| ~~~~~~~~~~~~~~~~~~~~~~~~~~~~~~~~~~~~~~~~~~~~~~~~~~~~~~~~~~~~~~~~~~~~~~~~
|-----------------|-----------------------|-------------------|---------------------|
|-----------------|-----------------------|-------------------|---------------------|
|-----------------|-----------------------|-------------------|---------------------|
|-----------------|-----------------------|-------------------|-----------4-5-4-5-7-|
|-----------5-(5)-|--5--(5)---(5)---3-5---|--7----7-7-7---5---|-3-(3)-(3)-----------|
|-3--3------------|-----------------------|-------------------|---------------------|


|-------------------------|--------------------------|----------------------------|--------------------------|
|-------------------------|--------------------------|----------------------------|--------------------------|
|-----------------------7-|-(7)--7--7-----7-----7--9-|-(9)--9--9--9-----7-------5-|-(5)--5--5--5-----5--5--4-|
|--5-----5-----5--5--5--7-|-(7)--7--7-----7-----7--9-|-(9)--9--9--9-----7-------5-|-(5)--5--5--5-----5--5--4-|
|--5-----5-----5--5--5--5-|-(5)--5--5-----5-----5--7-|-(7)--7--7--7-----5-------3-|-(3)--3--3--3-----3--3--2-|
|--3-----3-----3--3--3----|--------------------------|----------------------------|--------------------------|
|
|-------------------------|--------------------------|----------------------------|--------------------------|
|-------------------------|--------------------------|----------------------------|--------------------------|
|-12-12-12-12-12-12-12-12-|-12--12-12-12-12-12-16-17-|-19--19-19-19-17-16-(16)-12-|-12--12-12-12-12-12-12-12-|
|--x--x--x--x--x--x--x--x-|--x---x--x--x--x--x--x--x-|--x---x--x--x--x--x--(x)--x-|--x---x--x--x--x--x--x--x-|
|-10-10-10-10-10-10-10-10-|-10--10-10-10-10-10-14-15-|-17--17-17-17-15-14-(14)-10-|-10--10-10-10-10-10-10-10-|
|-------------------------|--------------------------|----------------------------|--------------------------|


|---------------|------------------|------------------|-------------------|-----------------|
|---------------|------------------|------------------|-------------------|-----------------|
|-------------7-|-(7)-7-7--7---7-9-|-(9)-9-9-9---7--5-|-(5)-5-5-5---5-5-4-|---------------7-|
|-5--5--5-5-5-7-|-(7)-7-7--7---7-9-|-(9)-9-9-9---7--5-|-(5)-5-5-5---5-5-4-|--5--5---5-5-5-7-|
|-5--5--5-5-5-5-|-(5)-5-5--5---5-7-|-(7)-7-7-7---5--3-|-(3)-3-3-3---3-3-2-|--5--5---5-5-5-5-|
|-3--3--3-3-3---|------------------|------------------|-------------------|--3--3---3-3-3---|
|
| ~~~~~~~~~~~~~~~~~~~~~~~~~~~~~~~~~~~~~~~~~~~~~~~~~~~~~~~~~~~~~~~~~~~~~~~~~~~~~~~~~~~~~~~~~~~
|---------------|------------------|------------------|-------7-----------|-10--------------|
|-8-------------|-10----8--7-8-----|--8---------------|-10----------------|-----------------|
|-------7-------|------------------|-----------7------|-----------5-------|--------12-------|
|---------------|------------------|------------------|-------------------|-----------------|
|---------------|------------------|------------------|-------------------|-----------------|
|---------------|------------------|------------------|-------------------|-----------------|


|-------------------------------|-------------------|--------------------------|
|-------------------------------|-------------------|--------------------------|
|-(7)-7-7------7---------7----9-|-(9)-9-9--9---7--5-|--(5)-5--5-5-----5-5-4----|
|-(7)-7-7------7---------7----9-|-(9)-9-9--9---7--5-|--(5)-5--5-5-----5-5-4----|
|-(5)-5-5------5---------5----7-|-(7)-7-7--7---5--3-|--(3)-3--3-3-----3-3-2----|
|-------------------------------|-------------------|--------------------------|
|
|~~~~~~~~~~~~~~~~~~~~~~~~~~~~~~~~~~~~~~~~~~~~~~~~~~~~~~~~~~~~~~~~~~~~~~~
|-------------------------------|-------------------|--------------------------|
|-12------(12)---(12)-----------|-------------------|--------------------------|
|--------------------------14---|---------11--12----|-(12)---------------------|
|---------------------12--------|-12----------------|------9-10-9-10-12--------|
|-------------------------------|-------------------|--------------------------|
|-------------------------------|-------------------|--------------------------|


Verso:
                                           
Guitarra 2: 

|--------------------|------------------|--------------------|
|o-------------------|------------------|--------------------|
|--12-----------14---|-(14)-------------|-12--------------14-|
|--------12----------|------------------|-----------12-------|
|o-------------------|------------------|--------------------|
|--------------------|------------------|--------------------|


Guitarra 1:

|--------------------|------------------|--------------------|
|o-------------------|------------------|--------------------|
|--------------------|------------------|--------------------|
|------------------7-|--(7)-7-7--7--7-9-|-(9)-9-9-9----7---5-|
|o--5--5----5-5--5-5-|--(5)-5-5--5--5-7-|-(7)-7-7-7----5---3-|
|---3--3----3-3--3---|------------------|--------------------|


                                 2.

|-----------------------------||-------------------|------------------------------|
|----------------------------o||-------------------|------------------------------|
|-(14)---(14)------12---11----||-12-------------14-|-(14)---(14)------12---11-----|
|-------------12--------------||----------12-------|-------------12---------------|
|----------------------------o||-------------------|------------------------------|
|-----------------------------||-------------------|------------------------------|

|

|-----------------------------||-------------------|------------------------------|
|----------------------------o||-------------------|------------------------------|
|-----------------------------||-------------------|------------------------------|
|--(5)-5-------5-5----5--5-5--||--9-9-9-9----7---5-|---5--5-------5-5----5--------|
|--(3)-3-------3-3----3--3-3-o||--7-7-7-7----5---3-|---3--3-------3-3----3--------|
|-----------------------------||-------------------|-----------------------10----|


Refrϣo:

Guitarra 2           

|----------------|------------------|-------------|----------------|
|o---------------|------------------|-------------|---------------o|
|--------------7-|-(7)-7-7-7-7-7----|-9---5-5---5-|-5--/9--7------|
|--5--5-5-5--5-7-|-(7)-7-7-7-7-7-7--|-9---5-5---5-|-5---x--x------|
|o-5--5-5-5--5-5-|-(5)-5-5-5-5-5-5--|-7---3-3---3-|-3--/7--5-----o|
|--3--3-3-3--3---|------------------|-------------|----------------|


Guitarra 1

|----------------|------------------|-------------|----------------|
|o---------------|------------------|-------------|---------------o|
|--------------7-|-(7)-7-7-7-7-7----|-9---5-5---5-|-5--/9--7------|
|--5--5-5-5--5-7-|-(7)-7-7-7-7-7-7--|-9---5-5---5-|-5---9--7------|
|o-5--5-5-5--5-5-|-(5)-5-5-5-5-5-5--|-7---3-3---3-|-3--/7--5-----o|
|--3--3-3-3--3---|------------------|-------------|----------------|


Interlúdio

Guitarra 1:

|----------|---------|----------|------|
|----------|---------|----------|------|
|----------|---------|-7--------|-5----|
|-5--------|---------|-7--------|-5----|
|-5--------|---------|-5--------|-3----|
|-3--------|---------|----------|------|


|--------------------|------------------|
|o-------------------|------------------|
|------------------7-|--(7)-7-7--7--7-9-|
|---5--5----5-5--5-7-|--(7)-7-7--7--7-9-|
|o--5--5----5-5--5-5-|--(5)-5-5--5--5-7-|
|---3--3----3-3--3---|------------------|


Guitarra 2:

|--------------------|------------------|
|o-------------------|------------------|
|--12-----------12---|-(12)-------------|
|--------12----------|------------------|
|o-------------------|------------------|
|--------------------|------------------|


Guitarra 1:

|--------------------|-----------------------|
|--------------------|----------------------o|
|-(9)-9-9-9----7---5-|---5--5--5-5---5-4-2---|
|-(9)-9-9-9----7---5-|---5--5--5-5---5-4-2---|
|-(7)-7-7-7----5---3-|---3--3--3-3---3-2-0--o|
|--------------------|-----------------------|

Guitarra 2:

|--------------------|-----------------------||
|--------------------|----------------------o||
|-12--------------14-|-(14)------------------||
|-----------12-------|-----------------------||
|--------------------|----------------------o||
|--------------------|-----------------------||


Guitarra 1:

|----------------------------|---------------------------|-----------------------------|
|o---------------------------|---------------------------|-----------------------------|
|--------------------------7-|--(7)--7--7-----7-----7--9-|-(9)--9--9--9--------7-----5-|
|---5--------5-----5--5--5-7-|--(7)--7--7-----7-----7--9-|-(9)--9--9--9--------7-----5-|
|o--5--------5-----5--5--5-5-|--(5)--5--5-----5-----5--7-|-(7)--7--7--7--------5-----3-|
|---3--------3-----3--3--3---|---------------------------|-----------------------------|


Guitarra 2:

|----------------------------|---------------------------|-----------------------------|
|o-15-15-15-15-15------------|---------------------------|-----------------------------|
|-----------------14-14-12---|--12--12-12-12-12-12-12-12-|-11--11-11-11----------------|
|----------------------------|---------------------------|-----------------12-12-12-12-|
|o---------------------------|---------------------------|-----------------------------|
|----------------------------|---------------------------|-----------------------------|


|----------------------------|---------------------------|-----------------------------|
|o---------------------------|---------------------------|-----------------------------|
|--12-------------------12---|-(12)----------------------|-12-----------------------14-|
|--------------12------------|---------------------------|--------------12-------------|
|o---------------------------|---------------------------|-----------------------------|
|----------------------------|---------------------------|-----------------------------|


Guitarra 1:

|----------------------------||----------------------------|
|---------------------------o||----------------------------|
|---5---5--5--5-----5--4--2--||--5--5--5--5-----5--4--2----|
|---5---5--5--5-----5--4--2--||--5--5--5--5-----5--4--2----|
|---3---3--3--3-----3--2--0-o||--3--3--3--3-----3--2--0----|
|----------------------------||----------------------------|


Guitarra 2:

|----------------------------||----------------------------|
|---------------------------o||----------------------------|
|--14--14-------12-12-12-12--||-14-14-------12-12-12-12----|
|---------12-12--------------||-------12-12----------------|
|---------------------------o||----------------------------|
|----------------------------||----------------------------|
|
|----------------------------||----------------------------|
|---------------------------o||----10--8-10--8--7-----8----|
|-(14)-----------------------||----------------------------|
|----------------------------||----------------------------|
|---------------------------o||----------------------------|
|----------------------------||----------------------------|


Verso

Guitarra 2:

|--------------------|------------------|--------------------|
|o-------------------|------------------|--------------------|
|--12-----------14---|-(14)-------------|-12--------------14-|
|--------12----------|------------------|-----------12-------|
|o-------------------|------------------|--------------------|
|--------------------|------------------|--------------------|


Guitarra 1:

||--------------------|------------------|--------------------|
||o-------------------|------------------|--------------------|
||--------------------|------------------|--------------------|
||------------------7-|--(7)-7-7--7--7-9-|-(9)-9-9-9----7---5-|
||o--5--5----5-5--5-5-|--(5)-5-5--5--5-7-|-(7)-7-7-7----5---3-|
||---3--3----3-3--3---|------------------|--------------------|


Guitarra 2:

|-----------------------------||-------------------|------------------------------|
|----------------------------o||-------------------|------------------------------|
|-(14)---(14)------12---11----||-12-------------14-|-(14)---(14)------12---11-----|
|-------------12--------------||----------12-------|-------------12---------------|
|----------------------------o||-------------------|------------------------------|
|-----------------------------||-------------------|------------------------------|


Guitarra 1:

|-----------------------------||-------------------|------------------------------|
|----------------------------o||-------------------|------------------------------|
|-----------------------------||-------------------|------------------------------|
|--(5)-5-------5-5----5--5-5--||--9-9-9-9----7---5-|---5--5-------5-5----5--------|
|--(3)-3-------3-3----3--3-3-o||--7-7-7-7----5---3-|---3--3-------3-3----3--------|
|-----------------------------||-------------------|-----------------------10----|


Refrϣo:
  
Guitarra 1:                                                       4x

|----------------|------------------|-------------|---------------|
|o---------------|------------------|-------------|--------------o|
|--------------7-|-(7)-7-7-7-7-7----|-9---5-5---5-|-5--/9--7-----|
|--5--5-5-5--5-7-|-(7)-7-7-7-7-7-7--|-9---5-5---5-|-5---x--x-----|
|o-5--5-5-5--5-5-|-(5)-5-5-5-5-5-5--|-7---3-3---3-|-3--/7--5----o|
|--3--3-3-3--3---|------------------|-------------|---------------|


Guitarra 2:                                                       4x

|----------------|------------------|-------------|---------------|
|o---------------|------------------|-------------|--------------o|
|--------------7-|-(7)-7-7-7-7-7----|-9---5-5---5-|-5--/9--7-----|
|--5--5-5-5--5-7-|-(7)-7-7-7-7-7-7--|-9---5-5---5-|-5---9--7-----|
|o-5--5-5-5--5-5-|-(5)-5-5-5-5-5-5--|-7---3-3---3-|-3--/7--5----o|
|--3--3-3-3--3---|------------------|-------------|---------------|


Outro:

Guitarra 1:

|----------------|------------------|------------------|---------------------|
|----------------|------------------|------------------|---------------------|
|--------------7-|---7--7-7--7--7-9-|---9--9-9-9--7--5-|---5--5-5-5----5-4-2-|
|--5--5--5-5-5-7-|---7--7-7--7--7-9-|---9--9-9-9--7--5-|---5--5-5-5----5-4-2-|
|--5--5--5-5-5-5-|---5--5-5--5--5-7-|---7--7-7-7--5--3-|---3--3-3-3----3-2-0-|
|--3--3--3-3-3---|------------------|------------------|---------------------|


Guitarra 2:         

|----------------|------------------|------------------|---------------------|
|----------------|------------------|------------------|---------------------|
|-12-------------|-(12)-------------|------------------|------------11-------|
|-12-------------|-(12)-------------|-(12)-------------|-(12)----------------|
|----------------|------------------|------------------|---------------------|
|----------------|------------------|------------------|---------------------|


Guitarra 1:

|----------------|------------------|------------------|-------------------|--------------*|
|----------------|------------------|------------------|-------------------|--------------*|
|--------------7-|---7--7-7--7--7-9-|---9--9-9-9--7--5-|---5--5-5-5--5-4-2-|--------------*|
|--5--5--5-5-5-7-|---7--7-7--7--7-9-|---9--9-9-9--7--5-|---5--5-5-5--5-4-2-|-------5------*|
|--5--5--5-5-5-5-|---5--5-5--5--5-7-|---7--7-7-7--5--3-|---3--3-3-3--3-2-0-|---x-x-5------*|
|--3--3--3-3-3---|------------------|------------------|-------------------|---x-x-3------*|


Guitarra 2:

|----------------|------------------|------------------|-------------------|--------------*|
|----------------|------------------|------------------|-------------------|--------------*|
|-12-------------|-(12)-------------|-(12)-------------|-(12)--------------|--------------*|
|----------------|------------------|------------------|-------------------|-------5------*|
|----------------|------------------|------------------|-------------------|-x---x-5------*|
|----------------|------------------|------------------|-------------------|-x---x-3------*|


Blink 182 (Guitar chords, ukelele, keyboard, tabs, bass, drums and lyrics)

Este fichero es trabajo propio de su transcriptor y representa su interpretación personal de la canción. El material contenido en esta página es para exclusivo uso privado, por lo que se prohibe su reproducción o retransmisión, así como su uso para fines comerciales.