Adams Song


(intro 2x)


D|------------------------------------------------------------------------|
A|------------------------------------------------------------------------|
F|------------------------------------------------------------------------|
C|---4-0---4-0---4-0---4-0---4-0---4-0---4-0---4-0------------------------|
G|--2-----2-----0-----0---------------------------------------------------|
D|--------------------------3-----3-----0-----3---------------------------|


(verse - abafado)

D|--------------------------------------------------------------------------|
A|--------------------------------------------------------------------------|
F|--------------------------------------------------------------------------|
C|-7-7-7-7-7-7-7-7---------------------4-4-4-4-4-4-4-4-4--------------------|
G|-5-5-5-5-5-5-5-5--5-5-5-5-5-5-5-5----2-2-2-2-2-2-2-2-2----5-5-5-5-5-5-5-5-|
D|------------------3-3-3-3-3-3-3-3-------------------------3-3-3-3-3-3-3-3-|


(riff 2x)

D|--------------------------------------------------------------------------|
A|--------------------------------------------------------------------------|
F|-----0-----0-----0-----0--------------------------------------------------|
C|---7-----7-----9-----9-----4-0---4-0---4-0--4-0---------------------------|
G|-5-----5-----7-----7------2-----2-----------------------------------------|
D|--------------------------------------3----3------------------------------|


(refrϣo 1ª parte 2x)

D|---------------------------------------------------------------------------|
A|---------------------------------------------------------------------------|
F|-7-7-7-7-7-7-7-7--9-9-9-9-9-9-9-9--4-4-4-4-4-4-4-4-------------------------|
C|-x-x-x-x-x-x-x-x--x-x-x-x-x-x-x-x--x-x-x-x-x-x-x-x--5-5-5-5-5-5-5-5--------|
G|-5-5-5-5-5-5-5-5--7-7-7-7-7-7-7-7--2-2-2-2-2-2-2-2--x-x-x-x-x-x-x-x--------
D|----------------------------------------------------3-3-3-3-3-3-3-3--------|


(refrϣo 2ª parte 2x)

D|---------------------------------------------------------------------------|
A|---------------------------------------------------------------------------|
F|-7-7-7-7-7-7-7--9-9-9-9-9-9-9---4-4-4-4-4-4-4------------------------------|
C|-7-7-7-7-7-7-7--9-9-9-9-9-9-9---4-4-4-4-4-4-4--5-5-5-5-5-5-5---------------|
G|-5-5-5-5-5-5-5--7-7-7-7-7-7-7---2-2-2-2-2-2-2--5-5-5-5-5-5-5---------------|
D|-----------------------------------------------3-3-3-3-3-3-3---------------|


(interlude)
      (12x)                  (4x)

D|-------------|------------------------------------||---------|
A|-------------|------------------------------------||---------|
F|----0---0----|------------------------------------||---------|
C|---4---4---4-|------2-----2-----2-----2-----2-----||---------|
G|--5---5---5--|--0-0---0-0---0-0---0-0---0-0---0---||---------|
D|-------------|------------------------------------||---------|


D|---------------------------------------------------------------------------|
A|---------------------------------------------------------------------------|
F|-7-7-7-7-7-7-7-7--9-9-9-9-9-9-9-9--4-4-4-4-4-4-4-4-------------------------|
C|-x-x-x-x-x-x-x-x--x-x-x-x-x-x-x-x--x-x-x-x-x-x-x-x--5-5-5-5-5-5-5-5--------|
G|-5-5-5-5-5-5-5-5--7-7-7-7-7-7-7-7--2-2-2-2-2-2-2-2--x-x-x-x-x-x-x-x--------|
D|----------------------------------------------------3-3-3-3-3-3-3-3--------|  (2x)


(refrϣo 2ª parte 2x)

D|---------------------------------------------------------------------------|
A|---------------------------------------------------------------------------|
F|-7-7-7-7-7-7-7--9-9-9-9-9-9-9---4-4-4-4-4-4-4------------------------------|
C|-7-7-7-7-7-7-7--9-9-9-9-9-9-9---4-4-4-4-4-4-4--5-5-5-5-5-5-5---------------|
G|-5-5-5-5-5-5-5--7-7-7-7-7-7-7---2-2-2-2-2-2-2--5-5-5-5-5-5-5---------------|
D|-----------------------------------------------3-3-3-3-3-3-3---------------|


Blink 182 (Guitar chords, ukelele, keyboard, tabs, bass, drums and lyrics)

Este fichero es trabajo propio de su transcriptor y representa su interpretación personal de la canción. El material contenido en esta página es para exclusivo uso privado, por lo que se prohibe su reproducción o retransmisión, así como su uso para fines comerciales.