Adam's Song


Introduçϣo:


E|----------------------------------------------------|
B|----------------------------------------------------|
G|----------------------------------------------------|
D|----4--0-------4--0-------4--0-------4--0-----------|
A|-2----------2----------0----------0-----------------|
E|----------------------------------------------------|


E|----------------------------------------------------|
B|----------------------------------------------------|
G|----------------------------------------------------|
D|----4--0-------4--0-------4--0-------4--0-----------|
A|----------------------------------------------------|
E|-3----------3----------0----------3-----------------|


E|----------------------------------------------------|
B|----------------------------------------------------|
G|----------------------------------------------------|
D|----4--0-------4--0-------4--0-------4--0-----------|
A|-2----------2----------0----------0-----------------|
E|----------------------------------------------------|


E|----------------------------------------------------|
B|----------------------------------------------------|
G|----------------------------------------------------|
D|----4--0-------4--0-------4--0-------4--0-----------|
A|----------------------------------------------------|
E|-3----------3----------0----------3-----------------|



Primeira Parte:

D5           G
        G        
5  B
        B        
5 I never thought, I'd die alone  G
        G        
5  D
        D        
5 I laughed the loudest, who'd have known?  G
        G        
5  B
        B        
5 I traced the cord back to the wall  G
        G        
5  D
        D        
5 No wonder it was never plugged in at all  G
        G        
5  B
        B        
5 I took my time, I hurried up  G
        G        
5  D
        D        
5 The choice was mine, I didn't think enough  G
        G        
5  B
        B        
5 I'm too depressed to go on  G
        G        
5 You'll be sorry when I'm gone Riff 1 - 2x: E|----------------------------------------------------| B|----------------------------------------------------| G|-------0----------0----------0----------0-----------| D|----7----------7----------9----------9--------------| A|-5----------5----------7----------7-----------------| E|----------------------------------------------------| E|----------------------------------------------------| B|----------------------------------------------------| G|----------------------------------------------------| D|----4--0-------4--0-------4--0-------4--0-----------| A|-2----------2---------------------------------------| E|-----------------------3----------3-----------------| Primeiro Refrϣo: (Guitarra 1) E|----------------------------------------------------| B|----------------------------------------------------| G|-7-7-7-7-7-7-7-7-7-9-9-9-9-9-9-9-9-9----------------| D|----------------------------------------------------| A|-5-5-5-5-5-5-5-5-5-7-7-7-7-7-7-7-7-7----------------| E|----------------------------------------------------|

Este fichero es trabajo propio de su transcriptor y representa su interpretación personal de la canción. El material contenido en esta página es para exclusivo uso privado, por lo que se prohibe su reproducción o retransmisión, así como su uso para fines comerciales.