Pump It


Intro:

e|---------------------------------------------------
B|---------------------------------------------------
G|---------------------------------------------------
D|---------------------------------------------------
A|---------------------------------------------------
E|0-------0---0-4-5-7-4---10-8-7---------------------


e|---------------------------------------------------
B|---------------------------------------------------
G|---------------------------------------------------
D|---------------------------------------------------
A|---------------------------------------------------
E|0-------0---0-4-5-7-4---10-8-7---------------------


e|---------------------------------------------------
B|---------------------------------------------------
G|---------------------------------------------------
D|---------------------------------------------------
A|---------------------------------------------------
E|8----7-5----8----7-5----8----7-5-------------------


e|---------------------------------------------------
B|---------------------------------------------------
G|---------------------------------------------------
D|---------------------------------------------------
A|---------------------------------------------------
E|0-------0---0-4-5-7----10-8-7----------------------


e|---------------------------------------------------
B|---------------------------------------------------
G|---------------------------------------------------
D|---------------------------------------------------
A|---------------------------------------------------
E|8----7-5----8----7-5----8----7-5-0-----------------


e|---------------------------------------------------
B|---------------------------------------------------
G|---------------------------------------------------
D|---------------------------------------------------
A|---------------------------------------------------
E|8----7-5----8----7-5----8----7-5-0-----------------


                E
        E        
 E
        E        
 E
        E        
e|--------------------------------------------------- B|--------------------------------------------------- G|--------------------------------------------------- D|--------------------------------------------------- A|--------------------------------------------------- E|5-4-2----5-4-2----5-4-2----------------------------
RefrÏ£o: e|--------------------------------------------------- B|--------------------------------------------------- G|--------------------------------------------------- D|--------------------------------------------------- A|--------------------------------------------------- E|0-------0---0-4-5-7-4---10-8-7--------------------- e|--------------------------------------------------- B|--------------------------------------------------- G|--------------------------------------------------- D|--------------------------------------------------- A|--------------------------------------------------- E|8----7-5----8----7-5----8----7-5------------------- e|--------------------------------------------------- B|--------------------------------------------------- G|--------------------------------------------------- D|--------------------------------------------------- A|--------------------------------------------------- E|8----7-5----4-------------------------------------- e|--------------------------------------------------- B|--------------------------------------------------- G|--------------------------------------------------- D|--------------------------------------------------- A|--------------------------------------------------- E|8----7-5----8----7-5----8----7-5-------------------  E
        E        
 E
        E        
 E
        E        
e|--------------------------------------------------- B|--------------------------------------------------- G|--------------------------------------------------- D|--------------------------------------------------- A|--------------------------------------------------- E|5-4-2----5-4-2----5-4-2----------------------------
Refrϣo: e|--------------------------------------------------- B|--------------------------------------------------- G|--------------------------------------------------- D|--------------------------------------------------- A|--------------------------------------------------- E|0-------0---0-4-5-7-4---10-8-7--------------------- e|--------------------------------------------------- B|--------------------------------------------------- G|--------------------------------------------------- D|--------------------------------------------------- A|--------------------------------------------------- E|8----7-5----8----7-5----8----7-5------------------- e|--------------------------------------------------- B|--------------------------------------------------- G|--------------------------------------------------- D|--------------------------------------------------- A|--------------------------------------------------- E|0-----0-4-5-----4-5-7-----10-8-7------------------- e|--------------------------------------------------- B|--------------------------------------------------- G|--------------------------------------------------- D|--------------------------------------------------- A|--------------------------------------------------- E|0-------------------------------------------------- e|--------------------------------------------------- B|--------------------------------------------------- G|--------------------------------------------------- D|--------------------------------------------------- A|--------------------------------------------------- E|0---3-5----------5--------------------------------- Refrϣo: e|--------------------------------------------------- B|--------------------------------------------------- G|--------------------------------------------------- D|--------------------------------------------------- A|--------------------------------------------------- E|0-------0---0-4-5-7-4---10-8-7--------------------- e|--------------------------------------------------- B|--------------------------------------------------- G|--------------------------------------------------- D|--------------------------------------------------- A|--------------------------------------------------- E|8----7-5----8----7-5----8----7-5------------------- E
        E        
   G
        G        
 A
        A        
La-da-di-dup-dup die dy
 C
        C        
On the stereo E
        E        
   G
        G        
 A
        A        
Let those speakers blow your mind (Blow my mind, baby)  C
        C        
To let it go, let it go  E
        E        
Here we go  G
        G        
 A
        A        
La-da-di-dup-dup die dy (c'mon, we're there)
 C
        C        
On the radio E
        E        
   G
        G        
 D
        D        
 D
        D        
The system is gonna feel so fine

Black E
        E        
yed Peas
(Guitar chords, ukelele, keyboard, tabs, bass, drums and lyrics)

Este fichero es trabajo propio de su transcriptor y representa su interpretación personal de la canción. El material contenido en esta página es para exclusivo uso privado, por lo que se prohibe su reproducción o retransmisión, así como su uso para fines comerciales.



Buscar canción en YouTube Buscar cover en YouTube


Más canciones