Boom Boom Pow


(intro)


E|------------------------------------------------------------------|
B|------------------------------------------------------------------|
G|------------------------------------------------------------------|
D|------------------------------------------------------------------|
A|--2-2-5--2-2-5--2-2-5---------------------------------------------|
E|--0-0-5--0-0-5--0-0-5---------------------------------------------| etc, you get the idea.


(verso)

E|---------------------------------------------------------------|
B|---------------------------------------------------------------|
G|---------------------------------------------------------------|
D|---------------------------------------------------------------|
A|---------------------------------------------------------------|
E|--0-0-1-3-0----------------------------------------------------|

    . . . . . (muting)

Breakdown (2:40)


E|---------------------------------------------------------------|
B|---------------------------------------------------------------|
G|---------------------------------------------------------------|
D|---------------------------------------------------------------|
A|---------------------------------------------------------------|
E|--3-3-0-1-3----------------------------------------------------|

    . . . . . (muting)

(base)

E|-----------------------------------------------------------|
B|-----------------------------------------------------------|
G|-----------------------------------------------------------|
D|-7-7-7-7--7-7-7-7--7-7-7-7--7-7-7-7------------------------|
A|-7-7-7-7--7-7-7-7--7-7-7-7--7-7-7-7------------------------|
D|-7-7-7-7--7-7-7-7--7-7-7-7--7-7-7-7------------------------|


E|-----------------------------------------------------------|
B|-----------------------------------------------------------|
G|-----------------------------------------------------------|
D|-3-3-3-3--3-3-3-3--0-0-0-0--0-0-0-0------------------------|
A|-3-3-3-3--3-3-3-3--0-0-0-0--0-0-0-0------------------------|
D|-3-3-3-3--3-3-3-3--0-0-0-0--0-0-0-0------------------------|


(refrϣo)

E|-----------------------------------------------------------|
B|-----------------------------------------------------------|
G|-----------------------------------------------------------|
D|-----7-----7-----7-----7-----3-----3-----0-----0-----------|
A|-----------------------------------------------------------|
D|-7-7---7-7---7-7---7-7---3-3---3-3---3-3---3-3-------------|


Black E
        E        
yed Peas
(Guitar chords, ukelele, keyboard, tabs, bass, drums and lyrics)

Este fichero es trabajo propio de su transcriptor y representa su interpretación personal de la canción. El material contenido en esta página es para exclusivo uso privado, por lo que se prohibe su reproducción o retransmisión, así como su uso para fines comerciales.



Buscar canción en YouTube Buscar cover en YouTube


Más canciones