Bebot



  Intro    'Philippino'


e|------1----------------1----1--3--1-3--1-----------|
B|---3----3-1--------1-3----3--------------3-1-3-----|
G|------------2-0-2----------------------------------|
D|---------------------------------------------------|
A|---------------------------------------------------|
E|---------------------------------------------------|



  Verse


e|------------------------------------------------------|
B|------------------------------------------------------|
G|------------------------------------------------------|
D|---0-0---0-0---0-0---0-0---0-0---0-0---0-0---00-0-----|
A|-------------0-----------0-----------0------------0---|
E|------------------------------------------------------|



  C
        C        
horus e|-------------------------------------| B|-------------------------------------| G|---------------------------------0---| D|---00-00-0-00-00-0-00-00-0-0---0-----| A|-------------------------------------| E|-----------------------------3-------|  E
        E        
ffect e|--------------------------| B|--------------------------| G|----------------7---7-----| D|------------7-------7-----| A|--------8-----------8-----| E|---10---------------10----| Tabbed by NintEndO

Black E
        E        
yed Peas
(Guitar chords, ukelele, keyboard, tabs, bass, drums and lyrics)

Este fichero es trabajo propio de su transcriptor y representa su interpretación personal de la canción. El material contenido en esta página es para exclusivo uso privado, por lo que se prohibe su reproducción o retransmisión, así como su uso para fines comerciales.



Buscar canción en YouTube Buscar cover en YouTube


Más canciones