El Sinaloence (TAB) (3)


2)-----------------12-11-12---------12-11-12-------------------------
1)-10-10-10-10-9-9-----------9-10-9----------9-9-12-12-12-10-10-10-9-9-9

4)----------------------------------------------12---
3)-------------------12-12-12-11-11-11-10-10-10------
2(-12-12-12-10-10-10---------------------------------

                                              2 veces
4)-12--------12-------12-----------------------12--
3)----11--------11-------11-----------12-11-10-----
2)-------10--------10-------10--12-10--------------

1)-9-12-10--9-12-10--9-12-10--

A
        A        
  Desde navolato vengo E7
       E7       
  dicen que nací en el roble me dicen que soy arriero porque les chiflo y se para  D
        D        
si les aviento el sombrero E7
       E7       
   A
        A        
ya verán como repara, E7
       E7       
  Ay ay ay,  A
        A        
ay mama por dios…. E7
       E7       
  Por dios que borracho vengo que me siga la tambora que me toquen el quelite después el niño perdido  D
        D        
y por ultimo el torito E7
       E7       
   A
        A        
pa que vean como me pinto, E7
       E7       
  Ay ay ay,  A
        A        
ay mama por dios… Soy del mero Sinaloa E7
       E7       
  donde se rompen las olas me gusta una que ande sola y que no tenga marido  D
        D        
pa no estar comprometido E7
       E7       
   A
        A        
cuando resulte la bola, E7
       E7       
  Ay ay ay  A
        A        
ay mama por dios…. Me dicen enamorado E7
       E7       
  pero de eso nada tengo todos me dicen el negro el negro pero con suerte  D
        D        
porque si me salta un gallo E7
       E7       
   A
        A        
no me le rajo a la muerte. E7
       E7       
  Ay ay ay  A
        A        
ay mama por dios…  A
        A        
NiMO G
        G        
ENTE. . . by chapito [hmcg]

 B
        B        
anda E
        E        
l Recodo

Este fichero es trabajo propio de su transcriptor y representa su interpretación personal de la canción. El material contenido en esta página es para exclusivo uso privado, por lo que se prohibe su reproducción o retransmisión, así como su uso para fines comerciales.



Buscar canción en YouTube Buscar cover en YouTube


Más canciones