El Sinaloence (TAB) (2)


1.  
2. -10-10-10-10-10-8-8-7-|---7-9-10-9-7---7-8-9-9-9| 
3. ----------------------|-9------------9----------| 
4. ----------------------|-------------------------| 
5. ----------------------|-------------------------| 
6. ----------------------|-------------------------| 
 
1. ---7-----5-----4-----2-----0---------| 
2. -9---9-7---7-5---5-3---3-2---2---3---| 
3. -------------------------------4---4-| D
        D        
os Remates 4. -------------------------------------| en A
        A        
5. -------------------------------------| 6. -------------------------------------| 1. -----0-----0-----0-----0-----0-2-0------| 2. ---2-----2-----0-----0-----0-------3-2-0| 3. -2-----2-----1-----1-----1--------------| Un Remate 4. ----------------------------------------| en A
        A        
5. ----------------------------------------| 6. ----------------------------------------|

 B
        B        
anda E
        E        
l Recodo

Este fichero es trabajo propio de su transcriptor y representa su interpretación personal de la canción. El material contenido en esta página es para exclusivo uso privado, por lo que se prohibe su reproducción o retransmisión, así como su uso para fines comerciales.



Buscar canción en YouTube Buscar cover en YouTube


Más canciones