Egocripta (TAB)


INTRO:
e----------------------------------------->
b----------------------------------------->
g----------------------------------------->
D------------------------2--2------------->
A------------------------2--2------------->
E----5/6---5---3/5---3---0--0------------->


e-------------------------------------------------------->
b-------------------------------------------------------->
g-------------------------------------------------------->
D--2--2--2----------------------------------------------->     X  3
A--2--2--2----------------------------------------------->
E--0--0--0--0--3--5/6--7--6--5--3--6--5--3--0------------>


e-----------3--3--3-------------------------->
b-----------3--3--3-------------------------->
g-----------X--X--X-------------------------->
D--2--2--2--2--2--2-------------------------->
A--2--2--2--2--2--2-------------------------->
E--0--0--0--0--0--0-------------------------->


Verso:

e-------------------------------------------------------->
b-------------------------------------------------------->
g-------------------------------------------------------->
D--2--2--2----------------------------------------------->     X  3
A--2--2--2----------------------------------------------->
E--0--0--0--0--3--5/6--7--6--5--3--6--5--3--0------------>


e-----------3--3--3-------------------------->
b-----------3--3--3-------------------------->
g-----------X--X--X-------------------------->
D--2--2--2--2--2--2-------------------------->
A--2--2--2--2--2--2-------------------------->
E--0--0--0--0--0--0-------------------------->

Aquí estoy ...
en la ciudad donde flota la herrumbre
padeciendo la histeria de la historia
en el cadalso de mi vanidad
¿Quien eres tu?
Que le mostrás tu diente de oro a la gente
que confundiste a los más insolentes
que festejas de una manera especial



E----------------------------------------->
b----------------------------------------->
g-----------------3/5--0------------------->    antes del estribillo hace algo asi con la
D----------3-p5--------------------------->    guitarra (suena mucho mejor con distorsion)
A----3-p5--------------------------------->
E----------------------------------------->


Estribillo:


 C
        C        
 G
        G        
 D
        D        
Sos el espejo de mis vanidades C
        C        
   G
        G        
 D
        D        
sos la mitad que se vuelve junta a mi C
        C        
   G
        G        
 D
        D        
alguien borroso, no pienso en nadie C
        C        
  Em
       Em       
  adonde empiezo yo vos terminas. INTRO VERSO oigo tu voz ... es el calvario de los hombres antiguos que se retuercen confinados en sus tumbas como el gusano en su crisálidad te conozco bien ... gozaste en todos mis amargos renuncies me prometiste alivio y me llevaste a sucumbir el deseo de implotar ESTRIBILLO Sos el espejo de mis vanidades sos la mitad que se vuelve contra mí alguien borroso, no pienso en nadie a donde empiezo yo vos terminás y me pregunto quién sos quién sos, quién sos. Aca se toca esto: 1------------------------------------------------------ 2------------------------------------------------------ 3--3/5----------------------------------------------- 4--------2-2-2-2-2-5-5-5-5-5-7-7-7-7-7-8-8-----------2- 5--------2-2-2-2-2-5-5-5-5-5-7-7-7-7-7-8-8-----------2- 6--------0-0-0-0-0-3-3-3-3-3-5-5-5-5-5-6-6-5-3-6-5-3-0- Babasonicos

Este fichero es trabajo propio de su transcriptor y representa su interpretación personal de la canción. El material contenido en esta página es para exclusivo uso privado, por lo que se prohibe su reproducción o retransmisión, así como su uso para fines comerciales.



Buscar canción en YouTube Buscar cover en YouTube


Más canciones