Sun


|-10-10---------------------|
|-------14-14--12-12--10-10-|
|---------------------------|
|---------------------------|
|---------------------------|
|---------------------------|

|----------------------------------------------|
|--7/10-10-8-8-------------10------------------|
|--------------11-11-9-9-------7-7--6-6-6-7-7--|
|----------------------------------------------|
|----------------------------------------------|
|----------------------------------------------|

D
        D        
   A
        A        
 G
        G        
Sun, in the sun, D
        D        
   A
        A        
Aunque los dias se nublen y el sol se caiga  G
        G        
 D
        D        
Dsus
       Dsus      
se como hacerte salir sin dejar el sur D
        D        
  y aunque los techos se mojen  A
        A        
 G
        G        
y la humedad se deje venir podre flotar  D
        D        
 A
        A        
todos los dias son nuevos si solo brillas  G
        G        
 D
        D        
mi amor en tus ojos yo podre mirar todo mi sur  D
        D        
 A
        A        
algo nos viene a buscar algo se quedara G
        G        
   D
        D        
entre los balcones debemos mirar G
        G        
   A
        A        
o vamos caminar y de este cielo vendra G
        G        
   D
        D        
musica que se esconde en algun lugar (hagan juegos con la nota E
        E        
en el acorde D
        D        
(osea suelten la primer cuerda, fijense como hace el tema al final de cada verso. Lisandro A
        A        
ristimuño

Este fichero es trabajo propio de su transcriptor y representa su interpretación personal de la canción. El material contenido en esta página es para exclusivo uso privado, por lo que se prohibe su reproducción o retransmisión, así como su uso para fines comerciales.



Buscar canción en YouTube Buscar cover en YouTube


Más canciones