Rocío (TAB)


Intro:
|----------------------------------------------------|
|----------------------------------------------------|
|----------------------------------------------------|
|------4-4-------------------------------------------|
|-2-2------4-4-----------2/6-6--4-4---1-1--2---------|
|----------------4-----------------------------------|

Estrofas:
|----------------------------------------------------|
|----------------------------------------------------|
|--4----8--6---3-4------4-3-1--------4---------------|
|-----------------------------4-2-1------------------|
|----------------------------------------------------|
|----------------------------------------------------|


|----------------------------------------------------|
|----------------------------------------------------|
|--4----8--9---3-4------4-3-1------------------------|
|-----------------------------4-2-1------------------|
|------------------------------------2---------------|
|----------------------------------------------------|


De tu cuerpo cae, agua que moja el dia
Y no dejare que nuestros dias sequen

B
        B        
 F#
       F#       
   E
        E        
Uoho Oh Oh De tus ojos caen, gotas de agua tibia Y no dejare, que mi cancion se enfrie B
        B        
 F#
       F#       
   E
        E        
Uoho Oh Oh E
        E        
  F#
       F#       
  G#m
       G#m       
  G#m
       G#m       
 F#
       F#       
   E
        E        
Se quedara en tu danzar E
        E        
 B
        B        
  F#
       F#       
   E
        E        
Todo el amor E
        E        
 B
        B        
  F#
       F#       
   E
        E        
De mis mañanas Arreglo: -------------------------------------------------- ------0---0----------------------------------------- ----4---4--------------------------4---3---------- -------------------------------------------------- --2---2-------------------------2----2------------ -------------------------------------------------- -------------------------------------------------- -------------------------------------------------- ------------------4/8-8---6--6---3--3---4--------- -----4-4------------------------------------------ -2-2-----4-4------2/6-6---4--4---1--1---2--------- -------------4------------------------------------ Termina en Si. Lisandro A
        A        
ristimuño

Este fichero es trabajo propio de su transcriptor y representa su interpretación personal de la canción. El material contenido en esta página es para exclusivo uso privado, por lo que se prohibe su reproducción o retransmisión, así como su uso para fines comerciales.



Buscar canción en YouTube Buscar cover en YouTube


Más canciones