Pluma (TAB)


intro/versos/


E||---------------------------|-----------------------------|
B||--------------0------------|-------------0---------------|
G||-------0-----------0-------|---------0--------0----------|
D||---7-------------------7---|------5---------------5------|
A||5--------------------------|--3--------------------------|
E||---------------------------|-----------------------------|

E||---------------------------|-----------------------------|
B||--------------0------------|-------------0---------------|
G||-------0-----------0-------|---------0--------0----------|
D||---7-------------------7---|------5---------------5------|
A||5--------------------------|--7--------------------------|
E||---------------------------|-----------------------------|

E||---------------------------|-----------------------------|
B||--------------3------------|-------------5---------------|
G||-------0-----------0-------|---------0--------0----------|
D||---4-----------------------|------5----------------------|
A||3--------------------------|--4--------------------------|
E||---------------------------|-----------------------------|

E||---------------------------|
B||---------------------------|
G||-------0------------0-----0|
D||---4-------------4---------|
A||3-------------5------------|
E||--------------------------3|




!!!!!!!!!!!!!!!!!!!!!!!!!!!!!!!!!!!!!!!!!!!!!!!!!!!!!
ESTO E
        E        
S LO QUE
        E        
 HACE
        E        
 LISANDRO!!! !!!!!!!!!!!!!!!!!!!!!!!!!!!!!!!!!!!!!!!!!!!!!!!!!!!!! Estribo esperaaameeeeeee nadie sabe E|----------------------------||-------------------------| B|----------------------------||-------------------------| G|----4---2---4---5-----------||--4---2---2---0----------| D|----------------------------||-------------------------| A|----5---4---5---7-----------||--5---4---5---2----------| E|----------------------------||-------------------------| que soooyy un pocoo leenntooo E|------------------| B|--5---3---2---0---| G|------------------| D|------------------| A|--7---5---4---2---| E|------------------| damee aireee que me eleveee E|----------------------------||-------------------------| B|----------------------------||-------------------------| G|----4---2---4---5-----------||--4---2---2---0----------| D|----------------------------||-------------------------| A|----5---4---5---7-----------||--5---4---5---2----------| E|----------------------------||-------------------------| y que ... E|------------------| B|--5---3---2---0---| G|------------------| D|------------------| A|--7---5---4---2---| E|------------------| tres veces mas asi .... E||------------------------| B||---8-------7--------8---| G||-----0-------0--------0-| D||------------------------| A||-7------5--------10-----| E||------------------------| Lisandro A
        A        
ristimuño

Este fichero es trabajo propio de su transcriptor y representa su interpretación personal de la canción. El material contenido en esta página es para exclusivo uso privado, por lo que se prohibe su reproducción o retransmisión, así como su uso para fines comerciales.



Buscar canción en YouTube Buscar cover en YouTube


Más canciones