39° (TAB)


Estrofas:


|---------5-----------5-----------------------|
|---3--------3---3------3---------------------|
|-----5-------------5-------------------------|
|-0------------0------------------------------|
|---------------------------------------------|
|---------------------------------------------|

|---------3-----------3-----------------------|
|---3--------3---3------3---------------------|
|-----5-------------5-------------------------|
|-0------------0------------------------------|
|---------------------------------------------|
|---------------------------------------------|


|-------1---------0-----------------------------|
|---3--------3------3--------------------------|
|-----2--------2----------------------------|
|-0--------0--------------------------------|
|---------------------------------------------|
|---------------------------------------------|

|-------2----------2----------------------------|
|---3-----3---3-------3-------------------------|
|-----2---------2---------------------------|
|-0---------0-----------------------------|
|---------------------------------------------|
|---------------------------------------------|


Riff (ta medio apretado pero busquen el tiempo):

--14--14--14--10--10--10--12--12--12-------------------
--------------------------------------10--10-----------
-------------------------------------------------------
-------------------------------------------------------
-------------------------------------------------------
-------------------------------------------------------

-10-10-10-------------------------------------------------
-----------8-8-8-10-10-10---------------------------------
--------------------------10-10-10-9-7-10-10-10-9-7-7-----
----------------------------------------------------------
----------------------------------------------------------
----------------------------------------------------------


Rojizo vendaval conocio la sal
En la fiebre que nacio
Temblaba de mis labios
Salia por detras, en cada movimiento sal

Un paño de agua tibia, mirada de ñandú
La cama comenzo a flotar
Mi cuerpo era nudo en posicion fetal
La sabana un sitio mas

Eadd9
      Eadd9      
G/E
       G/E       
  Espero que se me valla C/E
       C/E       
   D
        D        
/E
        E        
  Algun dia por favor... Los acordes con / haganlos asi: como si los hicieran con cejilla pero tocando la primera cuerda y la sexta al aire, y suena al pelo, se puede cantar. Ej: Eadd9
      Eadd9      
G/E
       G/E       
  C/E
       C/E       
  --2----0-----0---------------------------------------------- --0----3-----5---------------------------------------------- --1----4-----5---------------------------------------------- --2----5-----5---------------------------------------------- --2----5-----3---------------------------------------------- --0----0-----0---------------------------------------------- Lisandro A
        A        
ristimuño

Este fichero es trabajo propio de su transcriptor y representa su interpretación personal de la canción. El material contenido en esta página es para exclusivo uso privado, por lo que se prohibe su reproducción o retransmisión, así como su uso para fines comerciales.



Buscar canción en YouTube Buscar cover en YouTube


Más canciones