Azul Antena - Cielo (TAB)


CIELO: (Capotrasto en 5to traste) 
INTRO VERSO: 
e----------------------| 
B--------3-------------| 
G--0--------0----------|      x3 
D---------------0------| 
A----------------------| 
E--3--3----------------| 
  
e--------------------------------------------------------------| 
B--------3/1---------------0-------------0------------0--------| 
G--0---------------------------0------------0------------0-----| 
D-------------------2--------------2------------2------------2-| 
A---------------2---3---3---------3--3---------3---3-------3---| 
E--3--3---------3----------------------------------------------| 
 
e-----------------| 
B-----------------| 
G--0----2/0--0----| 
D-----------------| 
A-----------------| 
E-----------------| 
 
e---------------------------------| 
B---------------------------------| 
G---------------------------------| 
D----2---2-------2--2-----2--2----| 
A----3---3-------3--3-----3--3----| 
E---------------------------------| 
 
CORO: 
 
e-----------| 
B----3------| 
G-----------| 
D-----------| 
A----2------| 
E----3------| 
 
e---------| 
B---------| 
G---------| 
D----2----| 
A----3----| 
E---------|

Este fichero es trabajo propio de su transcriptor y representa su interpretación personal de la canción. El material contenido en esta página es para exclusivo uso privado, por lo que se prohibe su reproducción o retransmisión, así como su uso para fines comerciales.