Azul Antena - Aunque Tu No Estes (TAB)


Esto es super simple y lo explique muy bien... 
 
|--------------------------------------------------------------------| 
|--------------------------------------------------------------------| 
|--------------------------------------------------------------------| 
|--6--6--6--6--6----6--6--6--6--6----6--6--6--6--6----6--6--6--6--6--| 
|44-44-44-44-44-4-77-77-77-77-77-7-----------------------------------| 
|----------------------------------55-55-55-55-55-5-44-44-44-44-44-4-| 
 
                      E
        E        
n esta parte inica el piano |-------------------------------------------------------------------| |-------------------------------------------------------------------| |-------------------------------------------------------------------| |--6--6--6--6--6----6--6--6--6--6----6--6--6--6--6------------------| |44-44-44-44-44-4-77-77-77-77-77-7----------------------------------| |----------------------------------55-55-55-55-55-5-444444/21-------| Ese es el intro.. en el primer y segundo verso se repite lo mismo de arriba pero se aumenta un dedo dependiendo de la parte en la que estes, pero eso no es dificil... y para el precoro son las siguientes notas... C#m
       C#m       
  1 2 3 4 |---|---|---|-1-|---|---| |---|---|---|-1-|-2-|---| |---|---|---|-1-|---|-4-| |---|---|---|-1-|---|-3-| |---|---|---|-1-|---|---| |---|---|---|-1-|---|---|  E
        E        
1 2 3 4 5 6 7 |---|---|---|---|---|---|-1-|---|---| |---|---|---|---|---|---|-1-|---|-4-| |---|---|---|---|---|---|-1-|---|-3-| |---|---|---|---|---|---|-1-|---|-2-| |---|---|---|---|---|---|-1-|---|---| |---|---|---|---|---|---|-1-|---|---|  A
        A        
1 2 3 4 5 |---|---|---|---|-1-|---|---| |---|---|---|---|-1-|-2-|---| |---|---|---|---|-1-|---|-4-| |---|---|---|---|-1-|---|-3-| |---|---|---|---|-1-|---|---| |---|---|---|---|-1-|---|---| Abm
       Abm       
  |---|---|---|-1-|---|---| |---|---|---|-1-|---|---| |---|---|---|-1-|---|---| |---|---|---|-1-|---|-4-| |---|---|---|-1-|---|-3-| |---|---|---|-1-|---|---| Son las originales las saque del video de azul antena ------------> C
        C        
ortesia de The E
        E        
ND
        D        
  Facebook: http://www.facebook.com/pages/The-END/188362497848488

Este fichero es trabajo propio de su transcriptor y representa su interpretación personal de la canción. El material contenido en esta página es para exclusivo uso privado, por lo que se prohibe su reproducción o retransmisión, así como su uso para fines comerciales.