La clave para conquistarte (TAB) (2)


Este es el Solo de la cancion, ya que nunca encontre una tablatura
del mismo, pues saque esta de oido, a mi me suena bien...

cualquier duda o corrección: Kemeck_Ghana

Solo:

|-------------------------------------|
|----------------7-7-7-7-8-10-8-8-7-8-|
|----7-7h9-7--7-9---------------------|
|-7h9---------------------------------|
|-------------------------------------|
|-------------------------------------|

|--------------------------------------------|
|-------------7-8-8-8h7-7-7p5-7-7-7h10-------|
|----9-9-9-9-9------------------------9b-7-7-|
|-7-9----------------------------------------|
|--------------------------------------------|
|--------------------------------------------|

|--7-9-10-9p7-5-7p5-4--|
|-8--------------------|
|----------------------|
|----------------------|
|----------------------|
|----------------------|

|---------------------------------7--7-8-7-8-10-8-10-12-|
|----------------7-7-8-7-8-10-8-10-10-------------------|
|-4-6-7-6-7-9-7-9-9-------------------------------------|
|-------------------------------------------------------|
|-------------------------------------------------------|
|-------------------------------------------------------|

|-10-12s14-14b-14b--|
|------------------|
|------------------|
|------------------|
|------------------|
|------------------|

 A
        A        
xel F
        F        
ernando

Este fichero es trabajo propio de su transcriptor y representa su interpretación personal de la canción. El material contenido en esta página es para exclusivo uso privado, por lo que se prohibe su reproducción o retransmisión, así como su uso para fines comerciales.



Buscar canción en YouTube Buscar cover en YouTube


Más canciones