Peligro (TAB)


esta es mi primera rola que pongo espero que les guste
te la dedico lidexi.



 intro

e-7h9--9-9-7-----------------------------10-7-7p9-7---------
b------------10-9-7-7-7-7-9-7-10-10-9-7-------------10-9-7--
g-----------------------------------------------------------
d-----------------------------------------------------------
a-----------------------------------------------------------
E-----------------------------------------------------------


e-7h9--9-9-7----------------------------5---10101010101010-9-7h9-6
b------------10-9-7-7-7-7-9-7-10------7---5-----------------------
g---------------------------------7-7-----------------------------
d-----------------------------------------------------------------
a-----------------------------------------------------------------
E-----------------------------------------------------------------


e-----------------7h9-7---------------------------------------
b--7p9-7-9-7-6-7---------9p10-7-------------------------------
g-------------------------------------------------------------
d-------------------------------------------------------------
a-------------------------------------------------------------
E-------------------------------------------------------------

este es elintor de una buena musicamas tarde les paso el resto

 A
        A        
ventura

Este fichero es trabajo propio de su transcriptor y representa su interpretación personal de la canción. El material contenido en esta página es para exclusivo uso privado, por lo que se prohibe su reproducción o retransmisión, así como su uso para fines comerciales.