Lágrimas (BAJ) (2)


----------------intro-----------------------------
 G
        G        
-----------------------------------------  D
        D        
-----------------------------------------  A
        A        
---2--2------2--2------------------------  E
        E        
-----------------------4--4--------------  G
        G        
-----------------------------------------  D
        D        
-----------------------------------------  A
        A        
-----------------------------------------  E
        E        
---2--2------2--2------------------------  G
        G        
-----------------------------------------  D
        D        
-----------------------------------------  A
        A        
---2--2------2--2----------------4-------  E
        E        
-----------------------4-44---2---------- ------------------Coro----------------------------  G
        G        
-----------------------------------------  D
        D        
-----------44-----------44---------------  A
        A        
---2--2---------2--2---------------------X2  E
        E        
----------------------------------------- Despues de la primera vuelta salto (Salto)  G
        G        
-----------------------------------------  D
        D        
-----------------------------------------  A
        A        
----------66--------------66-------------X2  E
        E        
---4--4-----------4--4------------------- (Aqui)  G
        G        
-----------------------------------------  D
        D        
------------6----------------------------  A
        A        
----------6---6--------------------------  E
        E        
---4--4----------------------------------  G
        G        
-----------------------------------------  D
        D        
-----------66-------------66-------------  A
        A        
---4--4-----------4--4-------------------X2  E
        E        
-----------------------------------------  G
        G        
-----------------------------------------  D
        D        
-----------------------------------------  A
        A        
-----------44----------------44----------X2  E
        E        
---2--2------------2--2------------------ --------------------------------------------------  G
        G        
-----------------------------------------  D
        D        
-----------44-----------44---------------  A
        A        
---2--2---------2--2---------------------  E
        E        
-----------------------------------------  G
        G        
-----------------------------------------  D
        D        
-------------------------6---------------  A
        A        
----------66-----------6--6--------------  E
        E        
---4--4-----------4---------------------  G
        G        
-----------------------------------------  D
        D        
-----------------------------------------  A
        A        
----------66--------------66-------------  E
        E        
---4--4-----------4--4-------------------  G
        G        
-----------------------------------------  D
        D        
-----------66-------------66-------------  A
        A        
---4--4-----------4--4-------------------X2  E
        E        
-----------------------------------------  G
        G        
-----------------------------------------  D
        D        
-----------------------------------------  A
        A        
-----------44----------------44----------X2  E
        E        
---2--2------------2--2------------------ -----------Intermedio----------------------------  G
        G        
-----------------------------------------  D
        D        
-----------44-----------44---------------  A
        A        
---2--2---------2--2---------------------  E
        E        
-----------------------------------------  G
        G        
-----------------------------------------  D
        D        
-----------------------------------------  A
        A        
----------66--------------66-------------  E
        E        
---4--4-----------4--4-------------------  G
        G        
-----------------------------------------  D
        D        
-----------66-------------66-------------  A
        A        
---4--4-----------4--4-------------------  E
        E        
-----------------------------------------  G
        G        
-----------------------------------------  D
        D        
-----------------------------------------  A
        A        
-----------44----------------44----------  E
        E        
---2--2------------2--2------------------ -------------------------------------------------  G
        G        
-----------------------------------------  D
        D        
-----------44-----------44---------------  A
        A        
---2--2---------2--2---------------------  E
        E        
-----------------------------------------X2  G
        G        
-----------------------------------------  D
        D        
-----------44----------------------------  A
        A        
---2--2----------------------------------  E
        E        
-----------------------------------------  G
        G        
-----------------------------------------  D
        D        
-----------------------------------------  A
        A        
----------66--------------66-------------  E
        E        
---4--4-----------4--4-------------------  G
        G        
-----------------------------------------  D
        D        
-----------6-----------------------------  A
        A        
---4--4------4---------------------------  E
        E        
-----------------------------------------  G
        G        
-----------------------------------------  D
        D        
-----------------------------------------  A
        A        
-----------44-----------44---------------  E
        E        
---2--2------------2-------------2------- ------------------Coro----------------------------  G
        G        
-----------------------------------------  D
        D        
-----------44-----------44---------------  A
        A        
---2--2---------2--2---------------------X2  E
        E        
----------------------------------------- Despues de la primera vuelta salto (Salto)  G
        G        
-----------------------------------------  D
        D        
-----------------------------------------  A
        A        
----------66--------------66-------------X2  E
        E        
---4--4-----------4--4------------------- (Aqui)  G
        G        
-----------------------------------------  D
        D        
------------6----------------------------  A
        A        
----------6---6--------------------------  E
        E        
---4--4----------------------------------  G
        G        
-----------------------------------------  D
        D        
-----------66-------------66-------------  A
        A        
---4--4-----------4--4-------------------X2  E
        E        
-----------------------------------------  G
        G        
-----------------------------------------  D
        D        
-----------------------------------------  A
        A        
-----------44----------------44----------X2  E
        E        
---2--2------------2--2------------------ --------------------------------------------------  G
        G        
-----------------------------------------  D
        D        
-----------44-----------44---------------  A
        A        
---2--2---------2--2---------------------  E
        E        
-----------------------------------------  G
        G        
-----------------------------------------  D
        D        
-------------------------6---------------  A
        A        
----------66-----------6--6--------------  E
        E        
---4--4-----------4---------------------  G
        G        
-----------------------------------------  D
        D        
-----------------------------------------  A
        A        
----------66--------------66-------------  E
        E        
---4--4-----------4--4-------------------  G
        G        
-----------------------------------------  D
        D        
-----------66-------------66-------------  A
        A        
---4--4-----------4--4-------------------X2  E
        E        
-----------------------------------------  G
        G        
-----------------------------------------  D
        D        
-----------------------------------------  A
        A        
-----------44----------------44----------X2  E
        E        
---2--2------------2--2------------------  G
        G        
-----------------------------------------  D
        D        
-----------------------------------------  A
        A        
-----------------------------------------  E
        E        
---2------------------------------------- fin :D
        D        
  algun detallito q se q los tiene avisarme a edwin92v

 A
        A        
ventura

Este fichero es trabajo propio de su transcriptor y representa su interpretación personal de la canción. El material contenido en esta página es para exclusivo uso privado, por lo que se prohibe su reproducción o retransmisión, así como su uso para fines comerciales.