Enseñame a olvidar (TAB) (3)


e-------8-9-11-11/13-11-11h13-11-9-8---8h9-8----------9/11-9--------
b--9-11-------------------------------------11-9----9--------11-----
g------------------------------------------------10-----------------
d-------------------------------------------------------------------
a-------------------------------------------------------------------
E-------------------------------------------------------------------

e-----------------------11-9------------8-----15--15--15--15--------
b--------9-9h11-9-------11-9--9-9h11-9--9---15--15--15--15----------
g--10-13----------135----------------------------------------------
d-------------------------------------------------------------------
a-------------------------------------------------------------------
E-------------------------------------------------------------------

e-----13-12-13------------8-----15--15--15--15-------13-12-13-------
b---13----------9-9h11-9--9---15--15--15--15-------13---------------
g-13---------------------------------------------13-----------------
d-------------------------------------------------------------------
a-------------------------------------------------------------------
E-------------------------------------------------------------------

e-----------8--6----------------------------------------------------
b-9-9h11-9--9--7--11h13-11-8-8h9------------------------------------
g-------------------------------------------------------------------
d-------------------------------------------------------------------
a-------------------------------------------------------------------
E-------------------------------------------------------------------

e------11-9-----11-9-----11-9---11-11-11--9/11--9--9--9-6-6-6----
b-----9--------9--------9-------11-11-11--9/11--9--9--9-6-6-6----
g----8--------8--------8--------12-12-12-10/12-10-10-10-6-6-6----
d--10-------10-------10---------13-13-13-11/13-11-11-11-8-8-8----
a----------------------------------------------------------------
E----------------------------------------------------------------

e--------11-11-11/-9--9---------------------------------------------
b------11---11-11/-9--9--11h13-11-8-8h9-----------------------------
g----12-----12-12/10-10---------------------------------------------
d--13-------13-13/11-11---------------------------------------------
a-------------------------------------------------------------------
E-------------------------------------------------------------------

Despues de "Sera posible un dia decirte que por fin ya no te amo"
terminar en:

e--8-8-8-9-8-9-11-----
b----------------------
g----------------------

"Y aun que te deje de amar es imposible que te pueda olvidar"

e--13p11----11-13p11----11-13---
b--------13----------13----------

Pa' el coro los acordes son:

e----9---8--11---------------------------
b----9---9--11---------------------------
g---10---8--12---------------------------
d---11--10--13---------------------------

El solo es:

e---------------------------------------11-9--11-9------------------
b--8h9-9-9-9h11-9-8-8h9-9-8-11/13-11-9------9-----9-----------------
g-------------------------------------------------------------------
d-------------------------------------------------------------------
a-------------------------------------------------------------------
E-------------------------------------------------------------------

e--11-------11---11---13-------13---13---11-------11---11-----------
b-----9-9-9----9----9----9-9-9----9----9----8-8-8----8----8---------
g-------------------------------------------------------------------
d-------------------------------------------------------------------
a-------------------------------------------------------------------
E-------------------------------------------------------------------

e--13-15-13-11-15-17-15-13---------------
b----------------------------------------

Los 2 ultimos se tocan 2 veces

e----8-9-11p9p8-8-----15---6-8-9/11-9----8----8---------8----8------
b--9--------------11--15-8------------11---11---8-9--11---11---8-9--
g-------------------------------------------------------------------

e--------8----8---------8----8------
b-----11---11---9-8--11---11---9-8--
g-----------------------------------

e------------------
b--9p8-9p8---------
g---------10-------

e------11-9-----11-9-----11-9---11-11-11--9/11--9--9--9-6-6-6----
b-----9--------9--------9-------11-11-11--9/11--9--9--9-6-6-6----
g----8--------8--------8--------12-12-12-10/12-10-10-10-6-6-6----
d--10-------10-------10---------13-13-13-11/13-11-11-11-8-8-8----
a----------------------------------------------------------------
E----------------------------------------------------------------

y sigue igual

al final en el: "Show me how to forget you..."

e------11-13-11---9-11--9--8-11--8-13-11--8--
b------11-11-11---9--9--9--9--9--9--9--9--9--
g------12-12-12--10-10-10--8--8--8--8--8--8--
d------13-13-13--11-11-11-10-10-10-10-10-10--

Escuchenla y delen ritmo.
Perdon que no les di el resto de acordes pero ya no me dieron ganas
pero a la proxima se los doy con eso ya pueden sacar la cancion
de una mejor manera
Espero les paresca!!!!

 A
        A        
ventura

Este fichero es trabajo propio de su transcriptor y representa su interpretación personal de la canción. El material contenido en esta página es para exclusivo uso privado, por lo que se prohibe su reproducción o retransmisión, así como su uso para fines comerciales.