El Beso (TAB) (3)


e------------------------0--  -----------------------------
B-------3-3-3-3-3/6----3----  --------------------------0--
G-----0---------------------  ---------2-2-2-2-2/5--2------
D---------------------------  -------0---------------------
A--3------------------------  -----------------------------
E---------------------------  ---3-------------------------

----15-15-0--13-13-0--12-12-0--10-10-0---------    rep. 2 veces mas
-----------------------------------------------     total - 3 veces
-----------------------------------------------
-----------------------------------------------
-----------------------------------------------
-----------------------------------------------


--------0--------
-------1--1------
------0----0-----
-----2------2----
----3--------3---
---3----------3--

DO
       DO       
  SOL
       SOL       
  Hay una mujer………….Que domina mis sentidos SOL
       SOL       
  con solo tocar mi piel…………. FA
       FA       
  SOL
       SOL       
  Y como a mí también a otro hombre esto le puede suceder  DO
       DO       
Que solo por un beso LAm
       LAm       
  Se puede enamorar REm
       REm       
  FA
       FA       
  Sin necesidad de hablarse solo los labios rozarse SOL
       SOL       
  cupido los flechara Y solo por un beso Con ella soy feliz Tan solo con un besito me llevo al infinito y ni siquiera la conozco bien LAm
       LAm       
  Un beso significa Amistad, sexo y amor FA
       FA       
  En cualquier parte del mundo no importa la religión REm
       REm       
  FA
       FA       
  Por un beso de su boca boy al cielo y hablo con dios SOL
       SOL       
  Alcanzo las estrellas de emoción  DO
       DO       
Su boca es tan sensual SOL
       SOL       
  Me cautiva Y me excita no me canso de besar FA
       FA       
  Su lengua es mi debilidad SOL
       SOL       
  Ella sabe los truquitos díganme si hay alguien mas Que solo por un beso Se puede enamorar Sin necesidad de hablarse solo los labios rozarse cupido los flechara Y solo por un beso Con ella soy feliz Tan solo con un besito me llevo al infinito y ni siquiera la conozco bien Un beso significa Amistad, sexo y amor En cualquier parte del mundo no importa la religión Por un beso de tu boca boy al cielo y hablo con dios Alcanzo las estrellas de emoción (Requinto) Hay una mujer………….Que domina mis sentidos con solo tocar mi piel…………. Y como a mí también a otro hombre esto le puede suceder Que solo por un beso A
        A        
 partir de A
        A        
quí el Rasgueo es ritmo de rumba Un beso significa Amistad, sexo y amor En cualquier parte del mundo no importa la religión Por un beso de tu boca boy al cielo hablar con dios Alcanzo las estrellas de emoción. ESPERO QUE
        E        
 LES A
        A        
LLA
       LA       
 GUSTADO. SALUDOS PARA
        A        
 LUZ C
        C        
ARMINA, G
        G        
UILLERMINA, LURA, G
        G        
UADALUPE, MAXIMINA
        A        
  Y RAQUEL D
        D        
E
        E        
 SU A
        A        
MIGO E
        E        
D
        D        
ECIR YO.

 A
        A        
ventura

Este fichero es trabajo propio de su transcriptor y representa su interpretación personal de la canción. El material contenido en esta página es para exclusivo uso privado, por lo que se prohibe su reproducción o retransmisión, así como su uso para fines comerciales.